» » »

Mad For Medusa Tabs (ver.1)

Artists:  A B C D E F G H I J K L M N O P Q R S T U V W X Y Z # 

Mad For Medusa Tabs (ver.1)

The Junior Varsity
Rating:
4/5 (4 votes)

Hard to play? Try these video lessons and learn fast.
                half-step down

intro/chorus
eb--------------------------------------------------------------------------|
bb--------------------------------------------------------------------------|
gb--------------------------------------------------------------------------|
db-11-11--7/9-9-9-9--6/7-7--7/9-9-9-9--9/11-11--7/9-9-9-9--7-7-7-7-7-7-7-7--|
ab-11-11--7/9-9-9-9--6/7-7--7/9-9-9-9--9/11-11--7/9-9-9-9--7-7-7-7-7-7-7-7--|
eb--9--9--5/7-7-7-7--4/5-5--5/7-7-7-7--7/-9--9--5/7-7-7-7--5-5-5-5-5-5-5-5--|

verse
eb-------------------------------------------------------------------------|
bb--- repeat this rhythm 3x ---- fourth time around ----------------------|
gb-9-9---------------------------------------------------------------------|
db-9-9-9-9-9-11-11-11-11-11-11--6-6-6-6-6-6-6-6-7-7-7-7-7-7-7-7------------|
ab-7-7-9-9-9-11-11-11-11-11-11--6-6-6-6-6-6-6-6-7-7-7-7-7-7-7-7------------|
eb-----7-7-7--9--9--9--9--9--9--4-4-4-4-4-4-4-4-5-5-5-5-5-5-5-5------------|

piano thing in verse (this is pretty hard to tab but here goes nothing)
eb------------------------------------------15h12-12h11-11---|
bb-9---9---9---9---9---9---9---10---10---9----------------12-|
gb---9---9---9---9---9---9---9----9----9---------------------|
db-----------------------------------------------------------|
ab-----------------------------------------------------------|
eb-----------------------------------------------------------|

pre-chorus
eb-
bb-
gb- palm mute      palm mute       palm mute
db-6666666666-7777777777-9999999999-11-1111-11-9-99-9-7-77-9-9-|
ab-6666666666-7777777777-9999999999-11-1111-11-9-99-9-7-77-9-9-|
eb-4444444444-5555555555-7777777777--9--9-9--9-7-77-7-5-55-7-7-|

intro/chorus

verse 2
eb--------------------------------------|
bb--------------------------------------|
gb-9~--------------9~-------------------|
db-9~--6~--7~--6~--9~--6~--7~--6~-------|
ab-7~--6~--7~--6~--7~--6~--7~--6~-------|
eb-----4~--5~--4~------4~--5~--4~--7788-|

intro/chorus

verse 3
eb----------------------------------------------------------------------------|
bb----------------------------------------------------------------------------|
gb----------------------------------------------------------------------------|
db-22222222--7-5-----------77777777-22222222--7-5-----------77777777-99999999-|
ab-22222222------9--7-6----77777777-22222222------9--7-6----77777777-99999999-|
eb-00000000-------------7--55555555-00000000-------------7--55555555-77777777-|

eb-
bb-
gb-
db-77777777-99999999-10101010-1111111111-6666666-77777777-99999999-2222222-|
ab-77777777-99999999-10101010-1111111111-6666666-77777777-99999999-2222222-|
eb-55555555-77777777--8-8-8-8--9-9-9-9-9-4444444-55555555-77777777-0000000-|

eb-
bb-
gb-
db-6666666-77777777------|
ab-6666666-77777777------|
eb-4444444-55555555-7788-|

intro/chorus
end with
eb-------|
bb-------|
gb-------|
db-77-77-|
ab-77-77-|
eb-55-55-|
            
Hard to play? Try these video lessons and learn fast. | Correct




comments powered by Disqus
↑ Back to top | Tablatures and chords are parodies/interpretations of the original songs. You may use it for private study, scholarship, research or language learning purposes only