» » »

The Junior Varsity, House Fire Tabs (ver.1)

Artists:  A B C D E F G H I J K L M N O P Q R S T U V W X Y Z # 

House Fire Tabs (ver.1)

The Junior Varsity Tabs
Rating:
3/5 (2 votes)
House Fire lessons Tabs too difficult? Try these video lessons and learn fast
                Intro
E-------------------------------------------|
B-------------------------------------------|
G-------------------------------------------|
D-66666666-8888888--------------------------|
A-66666666-8888888-(---10)---(----13)-12-13-| 
E-44444444-6666666-888888-11-11-11-11-10-11-|(10)= Play as power chords like usual 10's lookd too confusing


Words Like Butterflies
E--------------------------|
B--------------------------|
G--------------------------|
D-66-88-10-13-13-----------|
A-66-88-10-13-13-----------|
E-44-66-88-11-11-----------|

This Shade of
E-------------------------------------------|
B-------------------------------------------|
G-------------------------------------------|
D-66666666-8888888--------------------------|
A-66666666-8888888-(---10)---(----13)-12-13-| 
E-44444444-6666666-888888-11-11-11-11-10-11-|
Break
E-------------------------------|
B-------------------------------|
G-------------------------------|
D-66-66-88-88-10-10-13-13-13-13-|
A-66-66-88-88-10-10-13-13-13-13-|
E-44-44-66-66-88-88-11-11-11-11-|

words and phrases
E-------------------------------------------|
B-------------------------------------------|
G-------------------------------------------|
D-66666666-8888888--------------------------|
A-66666666-8888888-(---10)---(----13)-12-13-| 
E-44444444-6666666-888888-11-11-11-11-10-11-|
and Now Im Gone
E---------------------------|
B---------------------------|
G---------------------------|
D-6--8--10-13---------------|
A-6--8--10-13---------------|
E-4~-6~-8~-11~--------------|
 Break
E-------------------------------|
B-------------------------------|
G-------------------------------|
D-66-66-88-88-10-10-13-13-13-13-|
A-66-66-88-88-10-10-13-13-13-13-|
E-44-44-66-66-88-88-11-11-11-11-|
Now Im Gone (outro)

E-------------------------------------------|
B-------------------------------------------|
G-------------------------------------------|
D-66666666-8888888--------------------------|
A-66666666-8888888-(---10)---(----13)-12-13-| 
E-44444444-6666666-888888-11-11-11-11-10-11-|
            

comments powered by Disqus
↑ Back to top | The Junior Varsity Tabs for House Fire. Lyrics for acoustic guitar and electric guitar. Tablatures and chords are parodies/interpretations of the original songs. You may use it for private study, scholarship, research or language learning purposes only