» » »

The Junior Varsity, Get Comfortable Bass tabs (ver.1)

Artists:  A B C D E F G H I J K L M N O P Q R S T U V W X Y Z # 

Get Comfortable Bass tabs (ver.1)

The Junior Varsity Tabs
 Rating:
4/5 (4 votes)
Get Comfortable lessons Tabs too difficult? Try these video lessons and learn fast
                The Junior Varsity “Get Comfortable”
Hey y'all, I'm pretty sure this is right.  The only part I'm a bit worried about is the 
break at 1:56, but I'm pretty sure I got that.  If you see anything wrong, constructive 
would be great.
After the intro, play this...

Gb------------------|
Db------------------|
Ab-2-2222-2222-2222-|
Eb------------------|

Gb---------------------------------|
Db--------2-4-2-----------5-4-2----|
Ab-2-2----------5--2-2---------5---|
Eb-----33--------------33----------|  x7

On the eighth time, play this...
Gb--------------------------------|
Db--------2-4-2-------------------|
Ab-2-2----------5--2-2----333-----|
Eb-----33--------------333--------|

Gb---------------------------------------------------------------|
Db--------2---------------------------2--------------------------|
Ab---2------33333-2---5-33333---2------33333-2-3-555555555555555-|
Eb-----33-----------33------------33-----------------------------|

Gb---------------------------------------------------------------|
Db---------------------------------------------------------------|
Ab-----------------3333333333333333-2222222222222222-3---2-------|
Eb-3333333333333333----------------------------------------3---5-|

Gb--------------------------------------------------------------------|
Db--------------------------------------------------------------------|
Ab-----------------3333333333333333-2222222222222222-3333333333333333-|
Eb-3333333333333333---------------------------------------------------|

After the keyboard fill...
Gb--------------------------------|
Db------2-4-2-------------5-4-2---|
Ab------------5---2-2-----------5-|
Eb---3----------------333---------|

Gb-------------------------------|
Db--------2-4-2-----------5-4-2--|
Ab-2-2----------5--2-2---------5-|
Eb-----33--------------33--------|

Gb---------------------------2-------|
Db--------2-4-2------------4---0-2-4-|
Ab-2-2---------5-2-2----2-4----------|
Eb-----33------------3-0-------------|

G---------------------------------------|
D---------------------------------------|
A-2----5-333333-2---3---555555555555555-|
E---33----------------------------------|

Gb---------------------------------------------------------------|
Db---------------------------------------------------------------|
Ab-----------------3333333333333333-2222222222222222-3---2-------|
Eb-3333333333333333----------------------------------------3---5-|

Gb--------------------------------------------------------------------|
Db--------------------------------------------------------------------|
Ab-----------------3333333333333333-2222222222222222-3333333333333333-|
Eb-3333333333333333---------------------------------------------------|

Gb----------------------------------------------------------------------|
Db----------------------------------4-555555555555555555555555555555555-|
Ab---------22222222-333333333333333-------------------------------------|
Eb-22222222-------------------------------------------------------------|

Gb------------------------------------------------|
Db-7777777777777777-------------------------------|
Ab-----------------------3*---2*--333333333333333-|
Eb-------------------3*---------------------------|

Gb--------------------------------------------------------------------|
Db--------------------------------------------------------------------|
Ab-----------------3333333333333333-2222222222222222-3333333333333333-|
Eb-3333333333333333---------------------------------------------------|

Gb------------------------------------------------------------------------|
Db------------------------------------------------------------------------|
Ab-----------------3333333333333333-2222222222222222-3333333333333333-----|
Eb-3333333333333333--------------------------------------------------5*-3-|

There ya go.
            
Submit corrections

comments powered by Disqus
↑ Back to top | The Junior Varsity Bass for Get Comfortable. Lyrics for acoustic guitar and electric guitar. Tablatures and chords are parodies/interpretations of the original songs. You may use it for private study, scholarship, research or language learning purposes only