» » »

We're Up For Sale Bass tabs (ver.1)

Artists:  A B C D E F G H I J K L M N O P Q R S T U V W X Y Z # 

We're Up For Sale Bass tabs (ver.1)

The (International) Noise Conspiracy
Rating:
0/5 (0 votes)

Hard to play? Try these video lessons and learn fast.
                PLEASE RATE THIS TAB!
Intro
G:--------------------------------------------------------------------------------
D:---------------------------------------------------------------------3h4-3------
A:----------------------------------------------7--777-5--555-3----5---------5-3--
E:-2-5-7-9-2--5-7-0-2--5-7-9-2--5-7-0-2--2-5-7------------------------------------

Riff 1
G:-------------------------
D:-------------------------
A:------------------------- 
E:-10-8-12-7-9-------------

Riff 2
G-------------------
D-------------------
A-7h9-9-9-7---------
E-------------------

Riff 3
G:-------------------------------------------------------------
D:-------------------------------------------------------------
A:-9-999--7-777--9-999--7-777--9-999--7-777--5-555-------------
E:----------------------------------------------------5-555----

Riff 4(We’re up for sale!)
G:----------------
D:----------------
A:--9-12----------
E:----------------

Riff 5
G:-------------
D:-------------
A:-------------
E:-3-5-0-2---
            
Hard to play? Try these video lessons and learn fast. | Correct




comments powered by Disqus
↑ Back to top | Tablatures and chords are parodies/interpretations of the original songs. You may use it for private study, scholarship, research or language learning purposes only