» » »

The (International) Noise Conspiracy, Up For Sale Tabs (ver.1)

Artists:  A B C D E F G H I J K L M N O P Q R S T U V W X Y Z # 
Rating:
0/5 (0 votes)
Up For Sale lessons Tabs too difficult? Try these video lessons and learn fast
                Tuning: standard

Intro       (lets notes ring into each other)
|-------5---5-----------------------------|
|-----7-------7-----------3---------------|
|---6-----------6-------2---------2-------|
|-4---------------4---0---------2---------|X2
|-----------------------------0-----------|
|-----------------------------------------|
The intro gets played threw 2wice the first time is played quite loudly and the 2nd time 
is played in the back ground!

Riff A
|-----5----------------|
|-3-2---5-7------------|
|----------------------|
|----------------------|X1
|----------------------|
|----------------------|

Riff B
|-5--------------------|
|---7-5-7--------------|
|----------------------|
|----------------------|X2
|----------------------|
|----------------------|
You will have to listen to the song to figure out where riff B comes in!

Riff A
|-----5----------------|
|-3-2---5-7------------|
|----------------------|
|----------------------|X1
|----------------------|
|----------------------|

Riff C
|----------------------|
|-3-2------------------|
|-----4----------------|
|-------2-4------------|X1
|----------------------|
|----------------------|

Riff A
|-----5----------------|
|-3-2---5-7------------|
|----------------------|
|----------------------|X1
|----------------------|
|----------------------|
The rythem is played slightly diffrent this time round!

Chorus
|-2-------------5--------------5---------|
|---3-------3-----7-------7----7---------|
|-----4---4---------6---6------6---------|
|-------4-------------4--------4---------|X2
|----------------------------------------|
|----------------------------------------|
The last chord is played the same as the intro!


Riff B
|-5--------------------|
|---7-5-7--------------|
|----------------------|
|----------------------|X2
|----------------------|
|----------------------|

Riff A
|-----5----------------|
|-3-2---5-7------------|
|----------------------|
|----------------------|X1
|----------------------|
|----------------------|

Riff C
|----------------------|
|-3-2------------------|
|-----3----------------|
|-------2-4------------|X1
|----------------------|
|----------------------|

Riff A
|-----5----------------|
|-3-2---5-7------------|
|----------------------|
|----------------------|X1
|----------------------|
|----------------------|

Chorus
|-2-------------3--------------3---------|
|---3-------3-----7-------7----7---------|
|-----4---4---------6---6------6---------|
|-------4-------------4--------4---------|X2
|----------------------------------------|
|----------------------------------------|

Bridge                                                                  X1
|-5-----------------------------------------------------------------------|
|---5---------------------------------------------------------------------|
|-----4---7-7-7-7-7-7-7-7-8-8-8-8-8-8-8-8-9-9-9-9-9-9-9-9-1010101010101010|
|-------4-5-5-5-5-5-5-5-5-6-6-6-6-6-6-6-6-7-7-7-7-7-7-7-7-8-8-8-8-8-8-8-8-|
|-------------------------------------------------------------------------|
|-------------------------------------------------------------------------|


|------------------------|
|------------------------|
|------------------------|
|-4-4-6-7-7--------------|X8
|-4-4-6-7-7--------------|
|-2-2-4-5-5--------------|

Chorus
|-2-------------3--------------3---------|
|---3-------3-----7-------7----7---------|
|-----4---4---------6---6------6---------|
|-------4-------------4--------4---------|X4
|----------------------------------------|
|----------------------------------------|

Riff A
|-----5----------------|
|-3-2---5-7------------|
|----------------------|
|----------------------|X1
|----------------------|
|----------------------|
Let last ntoe ring out! ends on feedback!
            

comments powered by Disqus
↑ Back to top | The (International) Noise Conspiracy Tabs for Up For Sale. Lyrics for acoustic guitar and electric guitar. Tablatures and chords are parodies/interpretations of the original songs. You may use it for private study, scholarship, research or language learning purposes only