» » »

The (International) Noise Conspiracy, The Way I Feel About You Tabs (ver.1)

Artists:  A B C D E F G H I J K L M N O P Q R S T U V W X Y Z # 

The Way I Feel About You Tabs (ver.1)

The (International) Noise Conspiracy Tabs
 Rating:
4/5 (4 votes)
The Way I Feel About You lessons Tabs too difficult? Try these video lessons and learn fast
1
                
Tuning: Standard

Intro:
G|----------|
D|--9-------|
A|--9--x32--|
E|--7-------|
    .

Main Riff:
e|---------------------------------------|
B|---------------------------------------|
G|--------------------9-9-9999-----------|
D|--9-9-9999-7-7-7777-9-9-9999-9-9-9999--|
A|--9-9-9999-7-7-7777-7-7-7777-9-9-9999--|
E|--7-7-7777-5-5-5555----------7-7-7777--|

Pre-Verse/Verse:
e|---------------------------------------|
B|---------------------------------------|
G|--7-7-7777-9-9-9999--------------------|
D|--7-7-7777-9-9-9999-9-9-9999-9-9-9999--|
A|--5-5-5555-7-7-7777-9-9-9999-9-9-9999--|
E|--------------------7-7-7777-7-7-7777--|

Chorus -> Main Riff
Pre-Verse / Verse 2
Chorus -> Main Riff

Solo -> Main Riff
NOT a 100% correct..
e|----------------------------------------------------------------------------------------------|
B|----------------------------------------------------------------------------------------------|
G|-----7~----77-------77h9--9^p7-7---7----------------------------------9^9^9^-7---7------------|
D|--9~----99----9~--99-------------9---9-7---------------------7-7-9-------------9---9-7---7----|
A|-----------------------------------------9-7-7-5---5-5-7-7-9---------------------------9---9--|
E|-------------------------------------------------7--------------------------------------------|
         
e|----------------------------------------------------------------------------------------|
B|----------------------------------------------------------------------------------------|
G|--8-8-8888-9-9-9999-9-9-9999-8-8-8888-9~~9^-7--9^-9^-7---7------------------------------|
D|--9-9-9999-7-7-7777-9-9-9999-9-9-9999---------9--------9---9-7---7------------------9~--|
A|---------------------------------------------------------------9---9-7---7----------9~--|
E|-----------------------------------------------------------------------9---9-999-7777~--| 

Post-Solo:
e|---------------|
B|---------------|
G|--7--9--12-----|
D|--7--9--12--7--|
A|--5--7--10--7--|
E|------------5--|

Chorus 3
Outro -> Verse

End on:
G|------|
D|--9~--|
A|--9~--|
E|--7~--|
            
Submit corrections

comments powered by Disqus
↑ Back to top | The (International) Noise Conspiracy Tabs for The Way I Feel About You. Lyrics for acoustic guitar and electric guitar. 1 Tablatures and chords are parodies/interpretations of the original songs. You may use it for private study, scholarship, research or language learning purposes only