» » »

Smash It Up Bass tabs (ver.2)

Artists:  A B C D E F G H I J K L M N O P Q R S T U V W X Y Z # 

Smash It Up Bass tabs (ver.2)

The (International) Noise Conspiracy
Rating:
0/5 (0 votes)

Hard to play? Try these video lessons and learn fast.
                T(I)NC-Smash it up
CD-A new morning, changing weather
PLEASE RATE THIS TAB!

Main Riff
G------------------------------------------------------------------------------------D------------------------------------------------------------------------------------A-----5-7-------5-7------5-7--10-12-10-------------5-7-------5-7-------5-7------5-3--
E-0-0------0-0-------0-0------------------12---0-0-------0-0-------0-0------3-5------

Chorus(Smash it up! When I’m down…)
G-------------
D-------------
A-5-7---------
E-------------

Break
G----------------------------------------------------------
D----------------------------------------------------------
A------------------10-10-9-9-7-7-5-5--10-10-9-9-7-7-5-5----
E-5-5-5-5-5-5-5-5------------------------------------------
            
Hard to play? Try these video lessons and learn fast. | Correct




comments powered by Disqus
↑ Back to top | Tablatures and chords are parodies/interpretations of the original songs. You may use it for private study, scholarship, research or language learning purposes only