» » »

Smash It Up Bass tabs (ver.1)

Artists:  A B C D E F G H I J K L M N O P Q R S T U V W X Y Z # 

Smash It Up Bass tabs (ver.1)

The (International) Noise Conspiracy
Rating:
0/5 (0 votes)

Hard to play? Try these video lessons and learn fast.
                Intro/Verse 
G|-------------------------------------------------------------| 
D|--------------------------5-7-5------------------------------| 
A|------5-7-----5-7-----5-7-------7----------------------------| 
E|--0-0-----0-0-----0-0----------------------------------------| 

G|-------------------------------------------------------------| 
D|-------------------------------------------------------------| 
A|------5-7-----5-7-----5-7---0-5-3----------------------------| 
E|--0-0-----0-0-----0-0-----3-------0--------------------------| 

Pre-Chorus 
G|------------| 
D|------------| 
A|--3-5-------| 
E|------------| 

Chorus(Play (1)x2,Then (2)x1) 
G|(pre-chorus)--|-----------------------------------------------|(1) 
D|--------------|-----------------------------------------------| 
A|--3-5---------|-----5-7-----5-7-----5-7-----5\3---------------| 
E|--------------|-0-0-----0-0-----0-0-----0-0-------------------| 

G|--------------|--------------------------------------------------------|(2) 
D|--------------|-----------------7-7-5-5-----5-5--7-7-5-5---------------| 
A|--3-5---------|-0-0-0-0-0-0-0-0---------7-7-------------7-7-5-5--------| 
E|--------------|--------------------------------------------------------| 

End 
G|----------------------------------------------------| 
D|--------------------------5-7-5---------------------| 
A|------5-7-----5-7-----5-7-------7-------------------| 
E|--0-0-----0-0-----0-0-------------------------------| 

G|----------------------------------------------------| 
D|----------------------------------------------------| 
A|----------------------------------------------------| 
E|--3-3-3-3-33-55-0-----------------------------------| 

Play 
Order:Intro/Versex8,Pre-Chorusx1,Versex7,Chorusx1,Versex4,Chorusx1,Versex1,End
            
Hard to play? Try these video lessons and learn fast. | Correct




comments powered by Disqus
↑ Back to top | Tablatures and chords are parodies/interpretations of the original songs. You may use it for private study, scholarship, research or language learning purposes only