» » »

The (International) Noise Conspiracy, Smash It Up Tabs (ver.1)

Artists:  A B C D E F G H I J K L M N O P Q R S T U V W X Y Z # 
Rating:
0/5 (0 votes)
Smash It Up lessons Tabs too difficult? Try these video lessons and learn fast
                

h = hammer on
s = slide

INTRO:
                                               repeat
-----------------------------------------------------------|
-----------------------------------------------------------|
-----------------------------------------------------------|
--------------------5h7--5---------------------------------|
--5--7--5--7--5--7----------7---5--7--5--7--5--7------5----|
--------------------------------------------------5h7---7--|


VERSE:
                                               repeat
-----------------------------------------------------------|
-----------------------------------------------------------|
-----------------------------------------------------------|
--------------------5h7--5---------------------------------|
--5--7--5--7--5--7----------7---5--7--5--7--5--7------5----|
--------------------------------------------------5h7---7--|


PRE-CHORUS: distortion

-----------------------|
-----------------5--5--|
--------------7--6--7--|
--------------7--7--7--|
--5--7--5--7--5--------|
-----------------------|


CHORUS: distorsion

  C5   D5
-----------------------------|
--------------5--5-----5--5--|
--5--5s7---7--6--7--7--6--7--|
--5--5s7---7--7--7--7--7--7--|
--3--3s5---5--------5--------|
-----------------------------|


VERSE


PRE-CHORUS


CHORUS: distortion

  C5   D5              C5   D5
----------------------------------5--|
--------------5--5----------------5--|
--5--5s7---7--6--7--(x2)--5--5s7--7--|
--5--5s7--*7--7--7--------5--5s7--7--|
--3--3s5---5--------------3--3s5-----|
-------------------------------------|

*another guitar plays this in the same time:

--------------------------|
--------------------------|
--------------------------|
--------------------------|
--5--7--5--7--5--7--5--7--|
--------------------------|


VERSE


PRE-CHORUS


CHORUS


ENDING:

play the verse riff and then this:

  G   Em
--3---0--|
--3---0--|
--4---0--|
--5---2--|
--5---2--|
--3---0--|


ENJOY!!!
            
Submit corrections

comments powered by Disqus
↑ Back to top | The (International) Noise Conspiracy Tabs for Smash It Up. Lyrics for acoustic guitar and electric guitar. Tablatures and chords are parodies/interpretations of the original songs. You may use it for private study, scholarship, research or language learning purposes only