» » »

Capitalism Stole My Virginty Tabs (ver.1)

Artists:  A B C D E F G H I J K L M N O P Q R S T U V W X Y Z # 

Capitalism Stole My Virginty Tabs (ver.1)

The (International) Noise Conspiracy
Rating:
0/5 (0 votes)

Hard to play? Try these video lessons and learn fast.
                The (International) Noise Conspiracy - Capitalism Stole My Virginity

Guitar tab by Eugene Bortolin

These are just to give you a rough idea of the notes in the song.
You'll have to listen to it to get the right patterns and the timing correct.



Use ska struming for main bit

e-5--55-----555--55----------
B-5--55-----555--55----------
G-5--55-----555--55----------
D----------------------------
A----------------------------
E----------------------------

guitar solo

e----------------------------
B--------------8-------------
G--9-97----------------------
D-7------9h10----------------
A----------------------------
E----------------------------

e----------------------------
B---------------8-10---------
G--9--97---------------------
D-7--7----9h10---------------
A----------------------------
E----------------------------

chorus

e----------------------------
B----------------------------
G--10--7---------------------
D--10--7--7------------------
A--8---5--7------------------
E---------5------------------
            
Hard to play? Try these video lessons and learn fast. | Correct




comments powered by Disqus
↑ Back to top | Tablatures and chords are parodies/interpretations of the original songs. You may use it for private study, scholarship, research or language learning purposes only