» » »

Abolish Work Tabs (ver.1)

Artists:  A B C D E F G H I J K L M N O P Q R S T U V W X Y Z # 

Abolish Work Tabs (ver.1)

The (International) Noise Conspiracy
Rating:
0/5 (0 votes)
Tabs too difficult? Try these video lessons and learn fast.
                The (International) Noise Conspiracy
"Abolish Work"

intro
------------------------------------------------
------------------------------------------------
------------------------------------------------
---------------------------------------9999999--
----------5---5-7---5---5-7---5---5-7--7777777--
--12/5--0---0-----0---0-----0---0---------------
zeros are palm-muted

verse
----------------------|-----------------
----------------------|-----------------
----------------------|-----------------
----------------------|-8-7-5--5h7p7----
--5-5h7--5-5h7--5-5h7-|--------------7--
----------------------|-----------------

fill
------------------------|----------------
------------------------|----------------
------------------------|----------------
--9--8--7-7-7-7-7-7-7-7-|-7-7-7-7--9--8--
--9--8--7-7-7-7-7-7-7-7-|-7-7-7-7--9--8--
--7--6--5-5-5-5-5-5-5-5-|-5-5-5-5--7--6--
                         this is played after verse 2

chorus
----------------------
----------------------
----------------------
--44444444--77777777--
--44444444--77777777--
--22222222--55555555--

------------------------------------
------------------------------------
---9-9-9-9-9-9-9-9-9-9-9-9-9-9-9-9--
---9-9-9-9-9-9-9-9-9-9-9-9-9-9-9-9--
---7-7-7-7-7-7-7-7-7-7-7-7-7-7-7-7--
--0-0-0-0-0-0-0-0-0-0-0-0-0-0-0-0---
"yeeeaahh, yeeeaahh"

end
-----------
-----------
-----------
--9--8--7--
--9--8--7--
--7--6--5--
            
Tabs too difficult? Try these video lessons and learn fast.


comments powered by Disqus
↑ Back to top | Tablatures and chords are parodies/interpretations of the original songs. You may use it for private study, scholarship, research or language learning purposes only