» » »

The Hot Lies, Promise Me Tabs (ver.1)

Artists:  A B C D E F G H I J K L M N O P Q R S T U V W X Y Z # 

Promise Me Tabs (ver.1)

The Hot Lies Tabs
 Rating:
2.3/5 (9 votes)
Promise Me lessons Tabs too difficult? Try these video lessons and learn fast
1
                -------------------------------------------------------------------------------
-------------------------------------------------------------------------------

Tuning: EADGBE


~  hold note
. staccato (dot above note)
PM palm mute (dot below note)

Intro
e|---------------------------------------------------------------------------|
B|---------------------------------------------------------------------------|
G|---------------------------------------------------------------------------|
D|---------------------------------------------------------------------------|
A|-8-8-8-8-8-8-8-8-6-6-6-6-6-6-6-6-4-4-4-4-4-4-4-4-1-1-1-1-1-1-1-1-----------|
E|---------------------------------------------------------------------------|
PM . . . . . . . . . . . . . . . . . . . . . . . . . . . . . . . .

e|---------------------------------------------------------------------------|
B|---------------------------------------------------------------------------|
G|-------------------------------------------------3-------------------------|
D|-------------------------------------------------3-------------------------|
A|-8-8-8-8-8-8-8-8-6-6-6-6-6-6-6-6-4-4-4-4-4-4-4-4-1-------------------------|
E|---------------------------------------------------------------------------|
PM . . . . . . . . . . . . . . . . . . . . . . . .

Verse
e|---------------------------------------------------------------------------|
B|---------------------------------------------------------------------------|
G|-------8--10---------8--10-------------------8--10---------8--10-----------|
D|-8-8-8------------8---------8----------8-8-8------------8---------8--------|
A|---------------------------------------------------------------------------|
E|---------------------------------------------------------------------------|

e|---------------------------------------------------------------------------|
B|---------------------------------------------------------------------------|
G|-------8--10---------8--10-------------------8--10-------------------------|
D|-8-8-8------------8---------8----------8-8-8------------8------------------|
A|---------------------------------------------------------------------------|
E|---------------------------------------------------------------------------|

Chorus
e|---------------------------------------------------------------------------|
B|---------9------------9----------------------9------------9----------------|
G|-----10-----------10-----10--------------10-----------10-----10------------|
D|--8------------8----------------------8------------8-----------------------|
A|---------------------------------------------------------------------------|
E|---------------------------------------------------------------------------|

e|---------------------------------------------------------------------------|
B|---------9------------9----------------------9------------9----------------|
G|-----10-----------10-----10--------------10-----------10-----10------------|
D|--8------------8----------------------8------------8-----------------------|
A|---------------------------------------------------------------------1~----|
E|---------------------------------------------------------------------------|

Verse
e|---------------------------------------------------------------------------|
B|---------------------------------------------------------------------------|
G|-------8--10---------8--10-------------------8--10---------8--10-----------|
D|-8-8-8------------8---------8----------8-8-8------------8---------8--------|
A|---------------------------------------------------------------------------|
E|---------------------------------------------------------------------------|

e|---------------------------------------------------------------------------|
B|---------------------------------------------------------------------------|
G|-------8--10---------8--10-------------------8--10---------8--10-----------|
D|-8-8-8------------8---------8----------8-8-8------------8---------8--------|
A|---------------------------------------------------------------------------|
E|---------------------------------------------------------------------------|

Verse pt 2
e|---------------------------------------------------------------------------|
B|---------------------------------------------------------------------------|
G|-------8--10---------8--10-------------------8--10---------8--10-----------|
D|-8-8-8------------8---------8----------8-8-8------------8---------8--------|
A|---------------------------------------------------------------------------|
E|---------------------------------------------------------------------------|

e|---------------------------------------------------------------------------|
B|---------------------------------------------------------------------------|
G|-------8--10---------8--10-------------------8--10~------------------------|
D|-8-8-8------------8---------8----------8-8-8-------------------------------|
A|---------------------------------------------------------------------------|
E|---------------------------------------------------------------------------|

Chorus
e|---------------------------------------------------------------------------|
B|---------9------------9----------------------9------------9----------------|
G|-----10-----------10-----10--------------10-----------10-----10------------|
D|--8------------8----------------------8------------8-----------------------|
A|---------------------------------------------------------------------------|
E|---------------------------------------------------------------------------|

e|---------------------------------------------------------------------------|
B|---------9------------9----------------------9------------9----------------|
G|-----10-----------10-----10--------------10-----------10-----10------------|
D|--8------------8----------------------8------------8-----------------------|
A|---------------------------------------------------------------------------|
E|---------------------------------------------------------------------------|

e|---------------------------------------------------------------------------|
B|---------9------------9----------------------9------------9----------------|
G|-----10-----------10-----10--------------10-----------10-----10------------|
D|--8------------8----------------------8------------8-----------------------|
A|---------------------------------------------------------------------------|
E|---------------------------------------------------------------------------|

e|---------------------------------------------------------------------------|
B|---------9------------9----------------------9------------9----------------|
G|-----10-----------10-----10--------------10-----------10-----10------------|
D|--8------------8----------------------8------------8-----------------------|
A|---------------------------------------------------------------------------|
E|---------------------------------------------------------------------------|

Bridge
e|---------------------------------------------------------------------------|
B|---------------------------------------------------------------------------|
G|--.--.--.--.-----.--.--.--.-----.--.--.--.---------------------------------|
D|--8--8--8--8-----8--8--8--8-----8--8--8--8-----8---6--6--6-----------------|
A|--8--8--8--8-----8--8--8--8-----8--8--8--8-----8---6--6--6-----------------|
E|--6--6--6--6-----6--6--6--6-----6--6--6--6-----6---4--4--4-----------------|

e|---------------------------------------------------------------------------|
B|---------------------------------------------------------------------------|
G|--.--.--.--.-----.--.--.--.-----.--.--.--.-----.---------.-----------------|
D|--4--4--4--4-----4--4--4--4-----4--4--4--4-----4--4--4---6--6--------------|
A|--4--4--4--4-----4--4--4--4-----4--4--4--4-----4--4--4---6--6--------------|
E|--2--2--2--2-----2--2--2--2-----2--2--2--2-----2--2--2---4--4--------------|

e|---------------------------------------------------------------------------|
B|---------------------------------------------------------------------------|
G|--.--.--.--.-----.--.--.--.-----.--.--.--.-----.---------.-----------------|
D|--8--8--8--8-----8--8--8--8-----8--8--8--8-----8--8--8---6--6--------------|
A|--8--8--8--8-----8--8--8--8-----8--8--8--8-----8--8--8---6--6--------------|
E|--6--6--6--6-----6--6--6--6-----6--6--6--6-----6--6--6---4--4--------------|

e|---------------------------------------------------------------------------|
B|---------------------------------------------------------------------------|
G|--.--.--.--.-----.--.--.--.------------------------------------------------|
D|--4--4--4--4-----4--4--4--4-----3~-----------------------------------------|
A|--4--4--4--4-----4--4--4--4-----3~-----------------------------------------|
E|--2--2--2--2-----2--2--2--2-----1~-----------------------------------------|

Breakdown
e|---------------------------------------------------------------------------|
B|---------------------------------------------------------------------------|
G|--3-3-3-5-5-5-6-6-6-5-5-5-6-6-5---8----------------------------------------|
D|--1-1-1-3-3-3-4-4-4-3-3-3-4-4-3---6----------------------------------------|
A|---------------------------------------------------------------------------|
E|---------------------------------------\\pickslide\\-----------------------|

Chorus
e|---------------------------------------------------------------------------|
B|---------9------------9----------------------9------------9----------------|
G|-----10-----------10-----10--------------10-----------10-----10------------|
D|--8------------8----------------------8------------8-----------------------|
A|---------------------------------------------------------------------------|
E|---------------------------------------------------------------------------|

e|---------------------------------------------------------------------------|
B|---------9------------9----------------------9------------9----------------|
G|-----10-----------10-----10--------------10-----------10-----10------------|
D|--8------------8----------------------8------------8-----------------------|
A|---------------------------------------------------------------------------|
E|---------------------------------------------------------------------------|

e|---------------------------------------------------------------------------|
B|---------9------------9----------------------9------------9----------------|
G|-----10-----------10-----10--------------10-----------10-----10------------|
D|--8------------8----------------------8------------8-----------------------|
A|---------------------------------------------------------------------------|
E|---------------------------------------------------------------------------|

e|---------------------------------------------------------------------------|
B|---------9------------9----------------------9------------9---------.------|
G|-----10-----------10-----10--------------10-----------10-----10-----3------|
D|--8------------8----------------------8------------8----------------3------|
A|--------------------------------------------------------------------1------|
E|---------------------------------------------------------------------------|

Please leave comments and corrections.
===============================================================================
            
Submit corrections

comments powered by Disqus
↑ Back to top | The Hot Lies Tabs for Promise Me. Lyrics for acoustic guitar and electric guitar. 1 Tablatures and chords are parodies/interpretations of the original songs. You may use it for private study, scholarship, research or language learning purposes only