>
 >
Ghosts And Mirrors

Ghosts And Mirrors Guitar Tabs

The Hot Lies - Ghosts And Mirrors chords, tabs, tablatures, lyrics

Guitar lessons | Add/correct | Request | Top 50 tabs Artists:  A B C D E F G H I J K L M N O P Q R S T U V W X Y Z 0-9

Ghosts And Mirrors Guitar Tabs – The Hot Lies

CD, Sheet music, Poster

Do you like Ghosts And Mirrors? Share with your friends now
Tabs
Album:Heart Attacks And Callous Acts EP
Tuning:DADGBe
Pic Colour:GREEN

Alright so this is my first time tabbing. Its a really good song probably my favourite 
the album. Hot lies are a great aussie band.


listen to the song for timing and all that

Intro
(Strum as each chord ten times)
e|------------------------------------------------------------------|
B|------------------------------------------------------------------|
G|------------------------------------------------------------------|
D|------4--------0--------------------------------------------------|x4
A|------4--------0--------------------------------------------------|
D|------4--------0--------------------------------------------------|

Intro lead (figure out when to play)
e|-------------------------------------------------------------------|
B|-------------------------------------------------------------------|
G|-----9999/1111--------------------9999999--------------------------|
D|-----xxxx/x-x(played 3 times)----xxxxxxx-(played once)------------|x2
A|-----7777/9-9---------------------7777777--------------------------|
D|-------------------------------------------------------------------|


Verse  (not so sure about this but sounds 99% to me)
e|-------------------------------------------------------------------|
B|-------------------------------------------------------------------|
G|------9~----6~---------6~----7~----6~------------------------------|
D|-----------------9~---------------------9~-------------------------|x2
A|-------------------------------------------------------------------|
D|-------------------------------------------------------------------|

(Played just before chorus) play as many times as needed
e|-----------------------------|
B|-----------------------------|
G|---------5-------------------|
D|---------x-------------------|
A|---------7-------------------|
D|-----------------------------|

Chorus
(Strum as each chord ten times)
e|----------------------------------------------------------------|
B|----------------------------------------------------------------|
G|----------------------------------------------------------------|
D|------4--------0------------------------------------------------|x4
A|------4--------0------------------------------------------------|
D|------4--------0------------------------------------------------|

Chorus Lead (figure out when to play)
e|----------------------------------------------------------------|
B|----------------------------------------------------------------|
G|-----9999/1111--------------------9999999-----------------------|
D|-----xxxx/x-x(played 3 times)----xxxxxxx-(played once)---------|x2
A|-----7777/9-9---------------------7777777-----------------------|
D|----------------------------------------------------------------|


Play verse again


Play chorus again


Breakdown

e|------------------------------------------------------------------|
B|------------------------------------------------------------------|
G|------------------------------------------------------------------|
D|-0~---4~------------------0~----4~--------------------------------|
A|-0~---4~---(pick slide)---0~----4~----(pick slide)----------------|
D|-0~---4~------------------0~----4~--------------------------------|


(I think the 11s use harmonics but its sounds all right without it anyway)
e|---------------------------------------------------------------------- |   \
B|-----------------------------------------------------------------|  -- |
G|----------11-11-11--------11-11-11-------11-11-11------11-11-11--|  -- |
D|----444--------------444------------444-----------444------------|  -- |
A|----444--------------444------------444-----------444------------|  -- |
D|----444--------------444------------444-----------444------------|  -- |
                                                                       |
                                                                       |X2
e|---------------------------------------------------------------|    -- |
B|---------------------------------------------------------------|    -- |
G|------777-666-777-7/99-----777-666-777-7/99--------------------|    -- |
D|------xxx-xxx-xxx-x/xx-----xxx-xxx-xxx-x/xx -------------------|    -- |
A|------555-444-555-5/77-----555-444-555-5/77--------------------|    -- |
D|---------------------------------------------------------------------- |____/


e|----------------------------------------------------------------|
B|----------------------------------------------------------------|
G|----------11-11-11--------11-11-11-------11-11-11------11-11-11-|
D|----444--------------444------------444-----------444-----------|
A|----444--------------444------------444-----------444-----------|
D|----444--------------444------------444-----------444-----------|


e|---------------------------------------------------------------|
B|---------------------------------------------------------------|
G|---------------------------------------------------------------|
D|----0---0---0---0---0---0---0---0---0~---------4~--------------|
A|----0---0---0---0---0---0---0---0---0~---------4~--------------|
D|----0---0---0---0---0---0---0---0---0~---------4~--------------|
      .   .   .   .   .   .   .   .


Bridge ("I see you every time you sleep....")

e|-------------------------------------------------------------|
B|-------------------------------------------------------------|
G|-------------------------------------------------------------|
D|-------------------------------------------------------------|
A|-------------------------------------------------------------|
D|------4~------0~-------7~-------9~---------------------------|


e|-------------------------------------------------------------|
B|-------------------------------------------------------------|
G|-------77777777779999911-------------------------------------|
D|-------xxxxxxxxxxxxxxxx--------------------------------------|
A|-------5555555555777779--------------------------------------|
D|-------------------------------------------------------------|


Play another chorus


Then finish on

e|--------------|
B|--------------|
G|--------------|
D|------4-------|
A|------4-------|
D|------4-------|

Thankyou and goodnight





Comments


Popular The Hot Lies tabs & chords
Cant Stand The Heat Bass Tabs
Against The Wall Intro Tabs
Emergency Emergency Tabs
Promise Me Tabs
Tell Me Goodnight Intro Tabs
Tokyo Intro Tabs


Song lyrics



↑ Back to top | Tablatures and chords are parodies/interpretations of the original songs. You may use it for private study, scholarship, research or language learning purposes only
© 2014 AZChords.com Contact us | Privacy policy | DMCA | Add/correct tabs | Request tabs | Top 50 tabs