>
 >
Up In Smoke 1

Up In Smoke 1 Guitar Tabs

The Holly Springs Disaster - Up In Smoke 1 chords, tabs, tablatures, lyrics

Guitar lessons | Add/correct | Request | Top 50 tabs Artists:  A B C D E F G H I J K L M N O P Q R S T U V W X Y Z 0-9

Up In Smoke 1 Guitar Tabs – The Holly Springs Disaster

CD, Sheet music, Poster

Do you like Up In Smoke 1? Share with your friends now
TabsTabs v2
Tuning: Drop C

Alright everyone, this is my first tab but I'm sure this tab is 100% correct
otherwise I wouldn't be posting it. More Holly Springs tabs on the way.

LEGEND
. - palm mute
h - hammer on
p - pull off
/ - slide down
b - bend
~ - let ring
* - pinched harmonic (pick squeal)


INTRO
Guitars 1 & 2    {x1}                  {3x}
|-----------------------|   |----------------------|
|-----------------------|   |----------------------|
|-----------------------|   |----------------------|
|--00-------------------|   |--0-------------------|
|--00-------3h5-3h4-3h4-|   |--0-------3h5-3h4-3h4-|
|--00-3p0-0-----3h4-3h4-|   |--0-3p0-0-----3h4-3h4-|
   .      .                          .

Guitar 1       {x2}
|----------------------------|
|----------------------------|
|----------------------------|
|--0-----------5h6-5-3p0-3p0-|
|--0-------3h5---------------|
|--0-3p0-0-------------------|
         .
Guitar 2       {x2}
|----------------------------|
|----------------------------|
|----------------------------|
|--0--------------------12/--|
|--0-------3h5----------12/--|
|--0-3p0-0--------------12/--|
         .
Guitars 1 & 2    {x2}          On third time {x1}
|----------------------|     |---------------|
|----------------------|     |---------------|
|----------------------|     |---------------|
|--0-------------------|     |--0------------|
|--0-------3h5-3h4-3h4-|     |--0-------3h5--|
|--0-3p0-0-----3h4-3h4-|     |--0-3p0-0------|
         .                            .
Guitar 1        {x1}
|-------------------------------------------------|
|-------------------------------------------------|
|-------------------------------------------------|
|-0~----------000---------0~----------00----00----|
|-0~----------000---------0~----------00----00----|
|-0~--3p0-3p0-000--6b6.5--0~--3p0-3p0-00----00----|
              ...                     ..    ..

Guitar 2       {x2}
|-------------------------------------------------|
|-------------------------------------------------|
|-------------------------------------------------|
|-0~----------000---------0~-------------00----00-|
|-0~----------000---------0~-------------00----00-|
|-0~--3p0-3p0-000--6b6.5--0~--3p0-3p0----00----00-|
              ...                        ..    ..

Guitar 1              {x1}
|---------------------------------------------------------|
|---------------------------------------------------------|
|---------------------------------------------------------|
|-0~----------000---------0~------------------------------|
|-0~----------000---------0~-------------3h5----5h8-------|
|-0~--3p0-3p0-000--6b6.5--0~--3p0-3p0-00-----00-----------|
              ...                     ..     ..

Guitar 2       {x2}
|--------------------------------------------------|
|--------------------------------------------------|
|--------------------------------------------------|
|-0~----------000---------0~-------------00-----00-|
|-0~----------000---------0~-------------00-----00-|
|-0~--3p0-3p0-000--9b9.5--0~--3p0-3p0----00-----00-|
              ...                        ..     .

Guitar 1        {x1}
|----------------------------------------------------|
|------------------9b10------------------------------|
|-----------------12b13------------------------------|
|-0~----------000---------0~----------00----00-------|
|-0~----------000---------0~----------00----00-------|
|-0~--3p0-3p0-000---------0~--3p0-3p0-00----00-------|
              ...                     ..    ..

Guitars 1 & 2       {x3}
|----------------------|-----------------------|
|----------------------|-------------------4-4-|
|----------------------|-------------------7-7-|
|--0-------------------|--0--------------------|
|--0-------3h5-3h4-3h4-|--0-------3h5-3h4------|
|--0-3p0-0-----3h4-3h4-|--0-3p0-0-----3h4------|

Guitar 1 & 2  {x1}
|------------|
|------------|
|------------|
|--0000-0-0--|
|--0000-0-0--|
|--0000-0-0--|
   .... . .

Guitar 1
|--------------------------------------|
|------6-6----------------------6-6----|
|------9-9----------------------9-9----|
|-000---------------00-----000---------|
|-000---------------00-----000---------|
|-000---------------00-----000---------|
  ...               ..     ...

Guitar 2
|--------------------------------------------|
|--------------4-4-----------------------4-4-|
|--------------7-7-----------------------7-7-|
|---------000----------00-----------000------|
|---------000----------00-----------000------|
|---------000----------00-----------000------|
          ...          ..           ...

Guitars 1 & 2   {x4}
|-----------------------|
|-----6-6-----4-4-------|
|-----9-9-----7-7-------|
|-000-----000-----0000--|
|-000-----000-----0000--|
|-000-----000-----0000--|
  ...     ...     ....

CHORUS
Guitars 1 & 2   {x2)
|-----------------------------------|
|-10-10-10~-------------------------|
|-10-10-10~-------------------------|
|--8--7--8~-------10-12-3-0-0~------|
|--8--7--8~-------10-12-3-0-0~------|
|-----7--8~-------10-12-3-0-0~------|


Guitar 1 (continued underneath)   {repeat the entire section x2}
|-------------------------------------------------------------------|
|-10-10-10-10-10101010101010~-10101010101010~-10--------------------|
|-10-10-10-10-10101010101010~-10101010101010~-10------555-777-101010|
|--8--7--8--8--8-8-8-8-8-8-8~--8-8-8-8-8-8-8~--8-(x6)-xxx-xxx--x-x-x|
|--8--7--8--8--8-8-8-8-8-8-8~--8-8-8-8-8-8-8~--8------333-555--8-8-8|
|-----7--8--8--8-8-8-8-8-8-8~--8-8-8-8-8-8-8~--8--------------------|

|----------|
|----------|
|-7--------|
|-x--(x25)-|
|-5--------|
|----------|

Guitar 2 (continued underneath)   {repeat entire section x2}
|-------------------------------------------------------------------------|
|-10-10-10-10-10101010101010~-10101010101010~-10--------------------------|
|-10-10-10-10-10101010101010~-10101010101010~-10--------------------------|
|--8--7--8--8--8-8-8-8-8-8-8~--8-8-8-8-8-8-8~--8-(x6)-101010-121212-333---|
|--8--7--8--8--8-8-8-8-8-8-8~--8-8-8-8-8-8-8~--8------101010-121212-333---|
|-----7--8--8--8-8-8-8-8-8-8~--8-8-8-8-8-8-8~--8------101010-121212-333---|

|----------|
|----------|
|----------|
|-0--(x25)-|
|-0--------|
|-0--------|

Guitars 1 & 2         {x1}
|-----------------------------------------------|
|-----------------------------------------------|
|-----------------------------------------------|
|-12/3-3-0--------------------------0---------3-|
|-12/3-3-0----5-------------3-------0---5-----3-|
|-12/3-3-0--6---6-5-3-0-3-5---5-3-5-0-6---6-5-3-|

        {x3}                            on fourth time   {x1}
|---------------------------|        |---------------------------|
|---------------------------|        |---------------------------|
|---------------------------|        |---------------------------|
|-0-------------------------|        |-0-------------------------|
|-0---5-------------3-------|        |-0---5-------------3-------|
|-0-6---6-5-3-0-3-5---5-3-5-|        |-0-6---6-5-3-0-3-5---5-3*--|

Guitar 1  {x3}                                 {x1}
|---------------------------|        |---------------------------|
|-----------4-------------6-|        |---------------------------|
|-----------7-------------9-|        |---------------------------|
|-0-------------------------|        |-0-------------------------|
|-0---5-------------3-------|        |-0---5---------------------|
|-0-6---6-5---0-3-5---5-3---|        |-0-6---6-5-3-0-3-5--0--0---|

Guitar 2  {x3}                                 {x1}
|---------------------------|        |---------------------------|
|---------------------------|        |---------------------------|
|---------------------------|        |---------------------------|
|-0-------------------------|        |-0-------------------------|
|-0---5-------------3-------|        |-0---5---------------------|
|-0-6---6-5-3-0-3-5---5-3-5-|        |-0-6---6-5-3-0-3-5--0--0---|

OUTRO
Guitars 1 & 2
|----------------------------------------|
|----------------------------------------|
|----------------------------------------|
|-0000--0000----0000--0000--0000----0000-|
|-0000--0000----0000--0000--0000----0000-|
|-0000--0000----0000--0000--0000----0000-|
  ....  ....    ....  ....  ....    ....

Guitar 1      {x2}
|----------------------------------------|
|----------------------------------------|
|----------------------------------------|
|----------------------------------------|
|----------------------------------------|
|-00000000000000000000000000000000000000-|

Guitar 2      {x2}
|----------------------------------------|
|----------------------------------------|
|----------------------------------------|
|-0000--0000----0000--0000--0000----0000-|
|-0000--0000----0000--0000--0000----0000-|
|-0000--0000----0000--0000--0000----0000-|
  ....  ....    ....  ....  ....    ....

Guitars 1 & 2
|------------------------------------------|
|------------------------------------------|
|------------------------------------------|
|-0000--0000----0000--0000--0000---12/0000-|
|-0000--0000----0000--0000--0000---12/0000-|
|-0000--0000----0000--0000--0000---12/0000-|
  ....  ....    ....  ....  ....      ....


Lyrics:
So let me introduce myself
I'm a mess
Master of success out of dirt
Under skirts, tell your girl
Cause we're taking you out on the town
And you ain't ever coming back

I am Rock and Roll
The son of sex and drugs
Cause it's your daughter that I want
And it's the sex and not the love
So come on

So now I made my choice,
Can't ever take it back
I packed up all my things
I'm moving to the West
So that someday I can just sleep in my own bed
Without all of your smoke rings wrappin around my head

So now I'm climbing this mountain to see
What I thought that I smelled from the sea

Don't blow smoke rings to the west
So that I can rest my head
Don't blow your smoke

BOOM!

So now I climbed that mountain
To see what I could see
But all I saw was pretty young girl
Sitting on her knees, she's sayin'

Come on cowboy, don't ya back down
You got a pistol and bullet with my name
"so I'm a cowboy, never back down
I got a pistol and bullet with your name"





Comments


Popular The Holly Springs Disaster tabs & chords
Absolut Balderdash Tabs
Absolute Balderdash Tabs
I Dare David Bowie To Drive Drunk Tabs
I Feel Like Im Taking Crazy Pills Tabs
I Feel Like Im Taking Crazy Pills Intro Tabs
Nice Night For A Neck Injury Tabs
Say It Again Maybe Itll Happen Tabs
Showdown Tabs
Showdown 1 Tabs
Up In Smoke Tabs


Song lyrics



↑ Back to top | Tablatures and chords are parodies/interpretations of the original songs. You may use it for private study, scholarship, research or language learning purposes only
© 2014 AZChords.com Contact us | Privacy policy | DMCA | Add/correct tabs | Request tabs | Top 50 tabs