» » »

The Holly Springs Disaster, Showdown Tabs (ver.1)

Artists:  A B C D E F G H I J K L M N O P Q R S T U V W X Y Z # 

Showdown Tabs (ver.1)

The Holly Springs Disaster Tabs
 Rating:
4/5 (4 votes)
Showdown lessons Tabs too difficult? Try these video lessons and learn fast
1
                -------------------------------------------------------------------------------|
-------------------------------------------------------------------------------|
-------------------------------------------------------------------------------|
-3-0-8-88-888-888-------3-0-1-88888888-------77777777-----3-0-1-77777777-------|
-3-0-6-66-666-666---x8--3-0-1-66666666---x4--55555555--x1-3-0-1-55555555--x3---|
-3-0--------------------3-0-1-----------------------------3-0-1----------------|

-------------------------------------------------------------------------------|
-------------------------------------------------------------------------------|
-------------------------------------------------------------------------------|
-3-0-1----------023---------3-0-2------3-0-2-----------------------------------|
-3-0-1-x1----023---023-023--3-0-2--x10-3-0-2--x5-000000-0000-0000--x4----------|
-3-0-1----023---------------3-0-2------3-0-2-----000000-0000-0000--------------|

-------------------------------------------------------------------------------|
-------------------------------------------------------------------------------|
-------------------------------------------------------------------------------|
--------------------------------------------0~-0-12\--0130---0130---01---------|
-000000----000000-0000-0000--000000-000-000-0~-0-12\--01302--01302--01---x4----|
-000000-3b-000000-0000-0000--000000-000-000-0~-0-12\--0130-3-0130-3-013*-------|

-------------------------------------------------------------------------------|
-------------------------------------------------------------------------------|
----------------------------10-10-10-10-10------8-8-8-8-8-----9-9-9-9-9--------|
-----------------------0-----9--9--9--9--9--x10-7-7-7-7-7--x2-8-8-8-8-8--x4-0--|
-----2------2-------x4-0-----8--8--8--8--8------6-6-6-6-6-----7-7-7-7-7-----0--|
-0130-3-0130-3-0131----0----------------------------------------------------0--|

-------------------------------------------------------------------------------|
-------------------------------------------------------------------------------|
-10-----------------10---------------------------------------------------------|
---12-10---10-12-10----12-10---10-------------------------------10-x3----------|
---------12------------------12--10\8--8/10-8--8/10-1010h12-1212---------------|
-------------------------------------12------12--------------------------------|

-------------------------------------------------------------------------------|
-------------------------------------------------------------------------------|
-10-------------------------1010-----------------------------------------------|
---12-10-12-10--10-12--x4-------1212-1010-1212-1010----1010-1212--x4-----------|
--------------12-----------------------------------1212------------------------|
-------------------------------------------------------------------------------|
            
Submit corrections

comments powered by Disqus
↑ Back to top | The Holly Springs Disaster Tabs for Showdown. Lyrics for acoustic guitar and electric guitar. 1 Tablatures and chords are parodies/interpretations of the original songs. You may use it for private study, scholarship, research or language learning purposes only