» » »

I Feel Like Im Taking Crazy Pills Tabs (ver.2)

Artists:  A B C D E F G H I J K L M N O P Q R S T U V W X Y Z # 

I Feel Like Im Taking Crazy Pills Tabs (ver.2)

The Holly Springs Disaster
Rating:
0/5 (0 votes)

Tabs too difficult? Try these video lessons and learn fast.
                (Intro)
--------------------------------------------------------------------------------|
    -- I feel like i'm taking Crazy Pills-The Holly Springs Disaster------------|

Tuning:Drop C

e|-----------------------------------------------------------------------------|
B|-----------------------------------------------------------------------------|
G|-----------------------------------------------------------------------------|
D|------------------7-7---------------------------7-7-----------------x6-------|
A|-----------------------------------------------------------------------------|
E|-0-0-0---3-3-3--------------0-0-0-----3-3-3----------------------------------|

e|---------------------------------------------------------------------------|
B|---------------------------------------------------------------------------|
G|---------------------------------------------------------------------------|
D|---------------------------------------------------------x4----------------|
A|---------------5-5--------------------5-5----------------------------------|
E|-0-0-0--3-3-3--------0-0-0--3-3-3------------------------------------------|

e|-----------------------------------------------------------------------------|
B|-----------------------------------------------------------------------------|
G|-----------------------------------------------------------------------------|
D|-------------------7-7------------------------7-7----------------------------|

A|--------------------------------------------------------------------------

E|---0-0-0--3-3-3--------------0-0-0--3-3-3---------------------------------

e|-----------------------------------------------------------------------------|
B|-----------------------------------------------------------------------------|
G|-----------------------------------------------------------------------------|
D|-----------------------------------------------------------------------------|
A|--------------------5-5--------------------------5-5-----------x4------------|
E|--0-0-0---3-3-3--------------0-0-0----3--3--3--------------------------------|

e|-----------------------------------------------------------------------------|
B|-----------------------------------------------------------------------------|
G|-----------------------------------------------------------------------------|
D|-0-0-0----3-3-3------7-----------x12-----------------------------------------|
A|-0-0-0----3-3-3------5-------------------------------------------------------|

E|-0-0-0----3-3-3---------------------------------------------------------|

e|-----------------------------------------------------------------------------|
B|-----------------------------------------------------------------------------|
G|-----------------------------------------------------------------------------|
D|----------3---------------------------3-------------------3-3---5-5----------|
A|---------------------7------------------------------7-----3-3---5-5----------|
E|---0---0--------------------0----0------------------------3-3---5-5----------|

e|-----------------------------------------------------------------------------|
B|-----------------------------------------------------------------------------|
G|-----------------------------------------------------------------------------|
D|-------3---------------------------------------------------------------------|
A|-----------------7-----------------------------------------------------------|
E|-0--0------------------(0-0-0)-(0-0-0)---------------------------------------|

if you want more just comment and tell me

(000) -triplet
            
Tabs too difficult? Try these video lessons and learn fast.




comments powered by Disqus
↑ Back to top | Tablatures and chords are parodies/interpretations of the original songs. You may use it for private study, scholarship, research or language learning purposes only