» » »

The Holly Springs Disaster, I Feel Like Im Taking Crazy Pills Tabs (ver.1)

Artists:  A B C D E F G H I J K L M N O P Q R S T U V W X Y Z # 

I Feel Like Im Taking Crazy Pills Tabs (ver.1)

The Holly Springs Disaster Tabs
 Rating:
4/5 (4 votes)
I Feel Like Im Taking Crazy Pills lessons Tabs too difficult? Try these video lessons and learn fast
1
                i feel like im taking crazy pills
the holly springs disaster

these are like the basic riffs but theyre pretty rough

• palm mute
/ slide
x mute
^ bend
h hammer


D ---------------------------|----------------------|------|
A ---------------------------|----------------------|------|
F -•••-----1414--•••----1414-|-•••-----77-•••----77-|---•--|
C -000-888-------000-88------|-000-333----000-33----|-0-0--|
G -000-888-1212--000-88-1212-|-000-333-55-000-33-55-|-0-0--|
C -000-888-------000-88------|-000-333----000-33----|-0-0--|

D ---------------------------------------------|-----|
A ----6--6------6--6------------6--6-----------|-----|
F -••---9--9-••---9--9-55/77-••---9--9-•••-•••-|--•--|
C -00--------00--------------00--------000-000-|-(0)-|
G -00--------00--------33/55-00--------000-000-|-(0)-|
C -00--------00--------------00--------000-000-|-(0)-|

D ------------------------------------------|
A ------------------------------------------|
F -•-•••••-•••-•••••-••-•••••-•••-•••••-----|
C -0-00000-000-00000-00-00000-000-00000-x---|
G -0-00000-000-00000-00-00000-000-00000-x-^-|
C -0-00000-000-00000-00-00000-000-00000-x-3-|

|-------------------------------------------|
|----6--6------6--6----------6--6-----------|
|------9--9------9--9----------9--9-•••-•••-|
|-00--------00--------x---00--------000-000-|
|-00--------00--------x-^-00--------000-000-|
|-00--------00--------x-3-00--------000-000-|

D ------------------|
A ------------------|
F ---------10-------|
C ------------10h12-|
G -8/10h12----------|
C ------------------|

D  bar   |-13-12-----13-12-------|-------------|------------|------|
A tenth  |-------13--------12h15-|-15-13-------|------------|------|
F  fret  |-----------------------|-------------|------------|------|
C  for   |-----------------------|-------------|------------|---^--|
G tapping|-----------------------|-------15p12-|-15-15-15-15|-(12)-|
C        |-----------------------|-------------|------------|------|


D -------------------------------------------------|
A -11111111----111111------11111111----111111------|
F -14141414-••-141414-•••--14141414-••-141414-••••-|
C ----------00--------000-----------00--------0000-|
G ----------00--------000-----------00--------0000-|
C ----------00--------000-----------00--------0000-|
            
Submit corrections

comments powered by Disqus
↑ Back to top | The Holly Springs Disaster Tabs for I Feel Like Im Taking Crazy Pills. Lyrics for acoustic guitar and electric guitar. 1 Tablatures and chords are parodies/interpretations of the original songs. You may use it for private study, scholarship, research or language learning purposes only