» » »

The Holly Springs Disaster, I Dare David Bowie To Drive Drunk Tabs (ver.1)

Artists:  A B C D E F G H I J K L M N O P Q R S T U V W X Y Z # 

I Dare David Bowie To Drive Drunk Tabs (ver.1)

The Holly Springs Disaster Tabs
 Rating:
4/5 (9 votes)
I Dare David Bowie To Drive Drunk lessons Tabs too difficult? Try these video lessons and learn fast
1
                I D.A.R.E. David Bowie To Drive Drunk
The Holly Springs Disaster\

Figure Out Muting And Timing Yourself..
Its Easy..

D -----------|
A -----------|
F -----------| until “im feeling you up”
C -0-3-5-12-0|
G -0-3-5-12-0|
C -0-3-5-12-0|

D ------------|
A ------------|
F ------------|
C -0-6-0-0-5-0|until “with motion sickness love”
G -0-6-0-0-5-0|
C -0-6-0-0-5-0|

D -----------------|
A -----------------|
F -----------------|
C -000-0000-0-0-0-0|
G -000-0000-0-0-0-0|
C -000-0000-0-0-0-0|

Random 0’s unitl “OH!”

D -----------------|
A -----------------|
F -----------------|
C -0-5-0-00-3-0-3-0| x4
G -0-5-0-00-3-0-3-0|
C -0-5-0-00-3-0-3-0|

D ---------------------|------------------------|
A -------- 9-----------|-------- 9--------------|
F --------12-----------|--------12--------------|
C -0-5-00----00-3-0-3-0|-0-5-00----00-3-0-3-0000| x2
G -0-5-00----00-3-0-3-0|-0-5-00----00-3-0-3-0000|
C -0-5-00----00-3-0-3-0|-0-5-00----00-3-0-3-0000|

D ------------|
A ------------|
F ------------|
C -0-6-00-5-0-| x8
G -0-6-00-5-0-|
C -0-6-00-5-0-|

D ---------------|
A ---------------|
F ---------------|
C -00-00-00-00-00|
G -00-00-00-00-00|
C -00-00-00-00-00|
D -----------------------------------|
A -----------------------------------|
F -----------------------------------|
C -0-0-0-0--0-0-0-0-00-00-00-00-00-00| x8
G -0-0-0-0--0-0-0-0-00-00-00-00-00-00|
C -0-0-0-0--0-0-0-0-00-00-00-00-00-00|

D ------------------------------------|
A ------------------------------------|
F ------------------------------------|
C -0-0-0-0--0-0-0-0--0-0-0-0--0-0-0-0-| 
G -0-0-0-0--0-0-0-0--0-0-0-0--0-0-0-0-|
C -0-0-0-0--0-0-0-0--0-0-0-0--0-0-0-0-|

There Ya Go..
Rhytm To the Holly Springs…
They Are Amazing And I Prolly got Some sh*t Wrong..
im new 2 Thisss…
So Email Me Any Corrections!!
            
Submit corrections

comments powered by Disqus
↑ Back to top | The Holly Springs Disaster Tabs for I Dare David Bowie To Drive Drunk. Lyrics for acoustic guitar and electric guitar. 1 Tablatures and chords are parodies/interpretations of the original songs. You may use it for private study, scholarship, research or language learning purposes only