» » »

The Holdup, You Been Whinin Tabs (ver.1)

Artists:  A B C D E F G H I J K L M N O P Q R S T U V W X Y Z # 

You Been Whinin Tabs (ver.1)

The Holdup Tabs
 Rating:
4/5 (4 votes)
You Been Whinin lessons Tabs too difficult? Try these video lessons and learn fast
1
                -----------------------------------------------------------------------
                             YOU BEEN WHININ’ – The Holdup
-----------------------------------------------------------------------



Tuning: Standard


The chords for this song are played on a uke so bash up your guitar a bit, make it all 
and itll sound fine, im sure.

Ill put up the solo later. For now, this is all the holdup you get


Guitar uno
Intro
C, F - 4x
G, F - 2x

Chorus
C, F - 4x

Verse
G, F - 2x


Guitar dos
(played once after intro chords play one time through)
e|---0----------0--------------0----------0---------------------------|
B|---3s5s3------3s5s3----------1s3s1------1s3s1-----------------------|
G|--------------------------------------------------------------------|
D|--------------------------------------------------------------------|
A|--------------------------------------------------------------------|
E|--------------------------------------------------------------------|


Intro riffimajig  2x
e|--------------------------------------------------------------------|
B|--------------------------------------------------------------------|
G|--------------------------------------------------------------------|
D|--------5-5-------------5-7-5---------------------------------------|
A|---3-3---------3-3-3s5--------------3-3-----------------3-5-3-------|
E|--------------------------------1-1---------------1-1-1-------------|

Intro chord change
e|--------------------------------------------------------------------|
B|--------------------------------------------------------------------|
G|--------------------------------------------------------------------|
D|------------555-555---------------555-555---------------------------|
A|-------5-5----------55-------3-3----------55------------------------|
E|---3-3-------------------1-1----------------------------------------|

e|--------------------------------------------------------------------|
B|--------------------------------------------------------------------|
G|--------------------------------------------------------------------|
D|--------------------------------------------------------------------|
A|-------5-5---77777-5-3h5p3--------3-3---3h5p3-2h3p2---2-------------|
E|---3-3------------------------1-1-------------------3---------------|
            
Submit corrections

comments powered by Disqus
↑ Back to top | The Holdup Tabs for You Been Whinin. Lyrics for acoustic guitar and electric guitar. 1 Tablatures and chords are parodies/interpretations of the original songs. You may use it for private study, scholarship, research or language learning purposes only