» » »

The Holdup, Wake Up Tabs (ver.1)

Artists:  A B C D E F G H I J K L M N O P Q R S T U V W X Y Z # 

Wake Up Tabs (ver.1)

The Holdup Tabs
Rating:
0/5 (0 votes)
Wake Up lessons Tabs too difficult? Try these video lessons and learn fast
                


Intro and Repeated throughout whole song:

(Guitar 1)
e ------7---9---7------7---9---7------7---9---7------7---9---7------|
B ----8---8---8------8---8---8------8---8---8------8---8---8--------|
G ------------------------------------------------------------------|
D ------------------------------------------------------------------|
A  -----------------------------------------------------------------|
E - ----------------------------------------------------------------|

(Guitar 2)
e -------------------------------------------------777//////22------|
B -------------------------------------------------888//////33------|
G ------------------------------------------------------------------|
D ------------------------------------------------------------------|
A ------------------------------------------------------------------|
E ------------------------------------------------------------------|

Repeat as many times as needed


The Good Part:

e ------3---3--------------------------3---3---3-----------------------|
B -------3---3-----1--1--3--3//5---3---2----2---2----1--1--3--3//5---3-|
G --------0---0----0--0--0-------------3-----3---3---0--0--0-----------|
D -----------------2--2--2---------------------------2--2--2-----------|
A ---2-------------3--3--3---------------------------3--3--3-----------|
E  ---3----------------------------------------------------------------|

Pretty much all of a good ass song.
Long live The Holdup
            

comments powered by Disqus
↑ Back to top | The Holdup Tabs for Wake Up. Lyrics for acoustic guitar and electric guitar. Tablatures and chords are parodies/interpretations of the original songs. You may use it for private study, scholarship, research or language learning purposes only