» » »

Main Offender Tabs (ver.3)

Artists:  A B C D E F G H I J K L M N O P Q R S T U V W X Y Z # 

Main Offender Tabs (ver.3)

Hives
Rating:
0/5 (0 votes)

Tabs too difficult? Try these video lessons and learn fast.
                Intro:
e|-------------------------|--------|
B|-------------------------|--------|
G|-------------------------|--------|
D|-------------------------|-0------|
A|--12--121212-121212-1212-|-0-1011-|
E|--10--101010-101010-1010-|----8-9-|

Verse:
e|--------------------------------------------------------|
B|--------------------------------------------------------|
G|--------------------------------------------------------|
D|----10-12--88-8-10-------------10-12--88-8----10--------|
A|-12--8-10--88-8--8-1010-11--12--8-10--88-8-10--8-10-11--|
E|-10--------66-6--8--8-8--9--10--------66-6--8--8--8--9--|

Chorus: 
E|-----------------------------------------|
B|-----------33333333----------------------|
G|--22222222-22222222----------------------|
D|--22222222-00000000-333333333-555555555--|
A|--00000000----------333333333-555555555--|
E|--------------------111111111-333333333--|

Lyrics:

I´m on my way, can´t settle down.
Stuck in ways of being an ass and I´ve got a lot of nerve 
that I´m ready to pass.
I´m on my way, cant settle down.
Stuck in ways of sadistic joy and my talent only goes as 
far as to annoy.
THIS IS MY MAIN OFFENDER. THIS IS WHAT I´VE GOT 
AND IT´S GOT ME SAYING - WHY ME!
I´m on my way, yeah I get around.
Not all to sure about what I do I feel I´ve got to stop a 
second just to think it through - and so I STOP!
I´m on my way, yeah I get around.
Thought it all over now I spit it out and when I spit I spit 
on those that I care less about - I´m on my way...
THIS IS MY MAIN OFFENDER. THIS IS WHAT I´VE GOT 
AND IT´S GOT ME SAYING - WHY ME!
            
Tabs too difficult? Try these video lessons and learn fast.




comments powered by Disqus
↑ Back to top | Tablatures and chords are parodies/interpretations of the original songs. You may use it for private study, scholarship, research or language learning purposes only