» » »

Inspection Wise 1 Tabs (ver.1)

Artists:  A B C D E F G H I J K L M N O P Q R S T U V W X Y Z # 

Inspection Wise 1 Tabs (ver.1)

Hives
Rating:
0/5 (0 votes)

Hard to play? Try these video lessons and learn fast.
                PROPS GO TO: Todd

Intro/Interlude
e|-----------------------------------------------------------|
B|-x-x-x-x-8-5---5-------------------------------------5---5-|
G|-------------7-------------------------------x-x-x-7---7---|
D|-----------------x-x-x-7-5---5-x-x-x-7-5---5---------------|
A|---------------------------7-------------7-----------------|
E|-----------------------------------------------------------|

Verse
e|------------------------------------------|
B|------------------------------------------|
G|-9----9-8-7----7----------9-9-----7-7-----|
D|-9----9-8-7--9-7-7----9-9-9-9-9-9-7-7-7-7-|
A|-7----7-6-5--9-5-7----9-9-7-7-9-9-5-5-7-7-|
E|-------------7---5----7-7-----7-7-----5-5-|

Chorus
e|----------------------------------------------------------|
B|----------------------------------------------------------|
G|----------------------------------------------------------|
D|----------------------9--9----9-9-9----9------------------|
A|-9--9----9----9----9--7--7-10-7-7-7-10-7-7-7-9-7-7-7-9-7--|
E|-7--7-10-7-10-7-10-7---------------------5-5-5-5-5-5-5-5--|

Fill
e|---------|
B|-9-9-9-9-|
G|---------|
D|---------|
A|---------|
E|---------|
            
Hard to play? Try these video lessons and learn fast. | Correct




comments powered by Disqus
↑ Back to top | Tablatures and chords are parodies/interpretations of the original songs. You may use it for private study, scholarship, research or language learning purposes only