>
 >
Insurance? 2

Insurance? 2 Guitar Tabs

The Higher - Insurance? 2 chords, tabs, tablatures, lyrics

Guitar lessons | Add/correct | Request | Top 50 tabs Artists:  A B C D E F G H I J K L M N O P Q R S T U V W X Y Z 0-9

Insurance? 2 Guitar Tabs – The Higher

CD, Sheet music, Poster

Do you like Insurance? 2? Share with your friends now
Bass TabsBass Tabs v2TabsTabs v2Tabs v3
INSURANCE by THE HIGHER


INTRO: is not guitar but you can play this:

E:--------------------|
B:--------------------|
G:--------------------|
D:--5-3--3-3----------|
A:-------------5-5h3--|
E:--------------------|


E:-------------------------------|-------------------------------|
B:-------------------------------|-------------------------------|
G:---------------5--5-5-7--7-3---|---------------5--5-5-7--7-----|
D:-5--5-5-5--5-5-5--5-5-7--7-3---|-5--5-5-5--5-5-5--5-5-7--7-----|
A:-5--5-5-5--5-5-3--3-3-5--5-1---|-5--5-5-5--5-5-3--3-3-5--5-----|
E:-3--3-3-3--3-3-----------------|-3--3-3-3--3-3-----------------|
             x3



CHORUS:

GUITAR1:                     dirty looks and glances...
E:--------------------------|-----------------|
B:----------15--------------|-----------------|
G:-15h16h17----15h16h17b-15-|-15-15--15-14----|
D:--------------------------|--------------15-|
A:--------------------------|-----------------|
E:--------------------------|-----------------|
             x3
GUITAR2:
E:--------------------------------------------|
B:--------------------------------------------|
G:--------------------------------------------|
D:-5-------/8-------/10------\3-3--3-4-4--4/--|
A:-5-------/8-------/10------\3-3--3-4-4--4/--|
E:-3-------/6-------/8-------\1-1--1-2-2--2/--|


GUITAR1:                      rock u  shock u drop u  and make you want it more...
E:--------------------------|------------------------------------------|
B:----------15--------------|------------------------------------------|
G:-15h16h17----15h16h17b-15-|-------------------------------13-14--13--|
D:--------------------------|-15-17---15-17---15-17---15-17------------|
A:--------------------------|------------------------------------------|
E:--------------------------|------------------------------------------|
             x2
GUITAR2:
E:---------------------------------------------------------------------|
B:---------------------------------------------------------------------|
G:-----------3-------------3--5--5----5--5----8--8----8--8----10-10----|
D:-5-------5-3-------------3--5--5----5--5----8--8----8--8----10-10----|
A:-5-------5-1-------------1--3--3----3--3----6--6----6--6----8--8-----|
E:-3-------3-----------------------------------------------------------|


When the chorus end...
GUITAR1:
E:---------------|  
B:---------------|
G:---------------|
D:---------------|
A:------10-10-10-|
E:---------------|

GUITAR2:
E:---------------|  
B:---------------|
G:---------------|
D:-5-------------|
A:-5-------------|
E:-3-let-ring----|




SOLO:

GUITAR1:
E:-------------------------------------------|
B:-------------------------------------------|
G:-------3b4---------------3p0---------------|
D:---3-0-----5-3-5-----3h5-----3p0-----3h5-3-|
A:-----------------3h5-------------3p0-------|
E:-3-----------------------------------------|

GUITAR2: the second guitar starts after.
E:------------------------------|------------|
B:------------------------------|------------|
G:-----7------7-7-7-----7-------|----7-------|
D:--5--7-8-3--7-7-7--5--7-8-3-4-|-5--7-8-3---|
A:--5--5-8-3--5-5-5--5--5-8-3-4-|-5--5-8-3---|
E:--3----6-1---------3----6-1-2-|-3----6-1---|
            X2



This is the 93% correct version of the tab. Enjoy!
Greetings from Italy! By SSimo.





Comments


Popular The Higher tabs & chords
Insurance? Bass Tabs
Movement Chords
Pace Yourself Chords
Try Again Chords
Dare Tabs
Insurance? Tabs
Insurance? 1 Tabs
Rock My Body Tabs
Rock My Body 2 Tabs
Can Anyone Really Love Young Ukulele


Song lyrics



↑ Back to top | Tablatures and chords are parodies/interpretations of the original songs. You may use it for private study, scholarship, research or language learning purposes only
© 2014 AZChords.com Contact us | Privacy policy | DMCA | Add/correct tabs | Request tabs | Top 50 tabs