» » »

Gone With The Guillotine Bass tabs (ver.1)

Artists:  A B C D E F G H I J K L M N O P Q R S T U V W X Y Z # 

Gone With The Guillotine Bass tabs (ver.1)

The Higher
Rating:
3/5 (1 vote)

Hard to play? Try these video lessons and learn fast.
                Gone with The Guillotine
the higher
intro verse


G||------------------------------------------------------------------------|
D||------------------------------------------------------------------------|
A||-------10----9----5-------0----0----2-----------------------------------|
D||--2--------------------------------------0-------10----9----5----5------|


----------------------------------------------------------------------|
----------------------------------------------------------------------|
------------------------------10----9----5-------0----0----2----------|
--7----5----4----0-------2--------------------------------------0-----|


-----------------------|----------------------||
-----------------------|----------------------||
-----------------------|----------------------||
--10----9----5----5----|--7----9----7----5----||
            
Hard to play? Try these video lessons and learn fast. | Correct




comments powered by Disqus
↑ Back to top | Tablatures and chords are parodies/interpretations of the original songs. You may use it for private study, scholarship, research or language learning purposes only