» » »

Kamata Hollywood City Tabs (ver.1)

Artists:  A B C D E F G H I J K L M N O P Q R S T U V W X Y Z # 

Kamata Hollywood City Tabs (ver.1)

The Gun Club
Rating:
5/5 (1 vote)

Hard to play? Try these video lessons and learn fast.
                Standard Tuning
R.I.P. Jefferey Lee Pierce.

intro + verse
--------------9-----------6---------4--------3--|
-11-11-11--11---11------8---8-------4--------4--|
-10-10-10--10-----------8---------5--------5----|
-11-11-11--11-----------8-------6--------3------|
----------------------8---------6--------3------|
--------------------6---------------------------|

guitar 2:
-------------------------BD----------------BD----|-10-------10----10--|
-11---11-------10-12-13--13-12---10-12-13--13-12-|----11-------11-----|
---------13-12-----------------------------------|-------12-----------|
-------------------------------------------------|--------------------|
-------------------------------------------------|--------------------|
-------------------------------------------------|--------------------|

------------------10---------------10--|
---------------11---------------11-----|
-12---10-12-13---------10-12-13--------|
---------------------------------------|
---------------------------------------|
---------------------------------------|

guit 1 meanwhile plays the following chords in a kind of "galloping" rhythm...
A# 688  C 81010
G# 466  C 81010   play this 2x
G# 466  C 81010


Kamata City shining
smokestack city lightning
you're frightened
now, we must embrace

like I kissed your beating heart
and kiss beneath your hat
and take you, on your mat
oh, silver night

chorus

Kamata Hollywood City shining
my wife's best friend, you changed your mind
 A#          G           Cm7
---------------------------------------|
---------6-----------3---4--4----------|
-------7-----------3-----3----5-3-5----|
-8--8--------5--5--------5-------------|
-8-(8)-------5-(5)---------------------|
-6-(6)-------3-(3)---------------------|

   A#           G                 G#(466544)
it's just like Disneyland in the night,

  C#(335543)
you shook me,
  G#                      A#(688766)
our lives will never be the same ----6---------|
                                 ------6-------|
                                 --------7-----|
                                 ----------8---|
                                 ------------8-|
                                 --------------|

Didn't do well with mother
after seven whiskeys
got frisky
tried to get her to dance

Almost missed my mark
the dogs began to bark
so, I dragged you in the park
once again

Kamata Hollywood City shining
my wife's best friend, you changed your mind
it's just like Disneyland after Dark

you shook me,
our lives will never be the same

solo : well, this is too much for me!

Happy shoppers stare at me
drunk along the street
boots upon my feet
"Oh, where's he from?"

Now, I'm lost in the city
this could be the end
better phone up my wife's best friend
and here you come,

Kamata Hollywood City shining
my wife's best friend, you changed your mind
it's just like Disneyland every night,

you shook me,
our lives will never be the same

end : intro riff (G#/C# is played 3x) before ending by A#(6887), (x688), A#(6887)

BD= Bend Note down.
            
Hard to play? Try these video lessons and learn fast. | Correct




comments powered by Disqus
↑ Back to top | Tablatures and chords are parodies/interpretations of the original songs. You may use it for private study, scholarship, research or language learning purposes only