» » »

The Game, Pot Of Gold Tabs (ver.1)

Artists:  A B C D E F G H I J K L M N O P Q R S T U V W X Y Z # 

Pot Of Gold Tabs (ver.1)

The Game Tabs
Rating:
5/5 (3 votes)
Hard to play? Try these video lessons and learn fast.
                Pot Of Gold Ft. Chris Brown
Game - The R.E.D. Album
ChuckNorris_58
Standard Tuning

Part #1
e|--------7---5---5-------------------------|
B|----0-------------7h8---8---7-5-3-2p0~----|
G|------7---7---7-------7---7---------------|
D|------------------------------------------|
A|------------------------------------------|
E|------------------------------------------|

Part #2
e|------7---5---5--------------------------|
B|----------------7h8---8---7-8-10-8p0~----|
G|----7---7---7-------7---7----------------|
D|-----------------------------------------|
A|-----------------------------------------|
E|-----------------------------------------|

Repeat these steps throughout the whole song.

h = hammer on
p = pull off
~ = ring out
            

comments powered by Disqus
↑ Back to top | The Game Tabs for Pot Of Gold. Lyrics for acoustic guitar and electric guitar. Tablatures and chords are parodies/interpretations of the original songs. You may use it for private study, scholarship, research or language learning purposes only