» » »

The Fray, Hips Dont Lie Tabs (ver.1)

Artists:  A B C D E F G H I J K L M N O P Q R S T U V W X Y Z # 

Hips Dont Lie Tabs (ver.1)

The Fray Tabs
 Rating:
4/5 (4 votes)
Hips Dont Lie lessons Tabs too difficult? Try these video lessons and learn fast
1
                -------------------------------------------------------------------------------
                             Hips Don't Lie - The Fray
-------------------------------------------------------------------------------

Tuning: Standard (eBGDAE)

OH. 6-18-07.

e|-----------------------------------------------------------------------|
B|---------7-7--7----------9--9------------------------------------------|
G|-6-6--6--8-8--8--5-5--5--10-10--10--3-3--3--5-5--5--6-6--6-------------|
D|-8-8--8--8-8--8--6-6--6--10-10--10--4-4--4--6-6--6--8-8--8--repeat-----|
A|-8-8--8--6-6--6--6-6--6--8--8---8---4-4--4--6-6--6--8-8--8-------------|
E|-6-6--6----------4-4--4-------------2-2--2--4-4--4--6-6--6-------------|

OR you could also use a Capo on the 1st fret and play theAm starting on
the A string. Like This!

e|---------1-1--1--------------------------------------------------------|
B|-1-1--1--3-3--3----------8-8--8------------------1-1--1----------------|
G|-2-2--2--2-2--2--4-4--4--9-9--9--2-2--2--4-4--4--2-2--2----------------|
D|-2-2--2--0-0--0--5-5--5--9-9--9--3-3--3--5-5--5--2-2--2--repeat--------|
A|-0-0--0----------5-5--5--7-7--7--3-3--3--5-5--5--0-0--0----------------|
E|-----------------3-3--3----------1-1--1--3-3--3------------------------|


| /  slide up
| \  slide down
| h  hammer-on
| p  pull-off
| ~  vibrato
| +  harmonic
| x  Mute note
===========================================================================
            
Submit corrections

comments powered by Disqus
↑ Back to top | The Fray Tabs for Hips Dont Lie. Lyrics for acoustic guitar and electric guitar. 1 Tablatures and chords are parodies/interpretations of the original songs. You may use it for private study, scholarship, research or language learning purposes only