» » »

The Fray, Heartbeat Bass tabs (ver.1)

Artists:  A B C D E F G H I J K L M N O P Q R S T U V W X Y Z # 

Heartbeat Bass tabs (ver.1)

The Fray Tabs
 Rating:
4.2/5 (5 votes)
Heartbeat lessons Tabs too difficult? Try these video lessons and learn fast
1
                -------------------------------------------------------------------------------
-------------------------------------------------------------------------------


Tuning: Standard

I don't think I'm finished with this tab yet, but I've gotten a bit
tired with it, so here it is. 

Intro
G|----------------------------------------------|
D|----------------------------------------------|
A|--------55-5-5-55-5---------------------------|
E|-2-2-25-------------5-55-5-5-1/5-55-5-55-5-54-|

G|--------------------------------------------|
D|--------------------------------------------|
A|--------55-5-55--5---5----------------------|
E|-2-2-25-----------5h7--55-5-5-1/5-55-5-4444-|

Verse
G|-------------------|
D|-------------------|
A|-----0555540000000-|
E|-1222--------------|4x

G|--------------------------|
D|--------------------------|
A|-47/99997-55554-000000000-|
E|--------------------------|3x

G|---------------------------------------------|
D|---------------------------------------------|
A|----------05555555454-777789999-555555554545-|
E|-000012222-----------------------------------|

Chorus 0:46
Ooooh...
G|-------------------------------------|
D|-------------------------------------|
A|--------5-5-55-54--------------------|
E|-2-2-25-----------5-55-5-1/5-5-55-54-|

G|--------------------------------|
D|--------------------------------|
A|--------5-5-5555----------------|
E|-2-2-25----------55-5-1/5-5-554-|

G|----------------------------------------|
D|-----------------4-/7-------------------|
A|--------5-5-55-55----7p5----------------|
E|-2-2-25------------------5551/5555555-4-|

G|----------------------------------|
D|----------------------------------|
A|--------5-5-55-55-----------------|
E|-2-2-25-----------55-55-55-1/55-4-|

Pre-verse
G|----------------------------------------|
D|----------------------------------------|
A|-----05555-200000000-----05555400000000-|
E|-2222---------------02222---------------|

Verse
G|----------------------|
D|----------------------|
A|------05555-400000000-|
E|-12222----------------|5x

G|-----------------------|
D|--2-4444---------------|
A|-2------75555400000000-|
E|-----------------------|3x

Preverse 1:41
If you love someone...
G|-----------------------------------------|
D|-----------------------------------------|
A|-----------05555454-7777899997\555555555-|
E|-0000-12222------------------------------|

Chorus 1:50
Ooooh, I can feel your heartbeat….
G|--------------------------------------|
D|--------------------------------------|
A|--------5-5-55-555--------------------|
E|-2-2-25------------5-55-5-1/5-5-55-54-|

G|---------------------------------------|
D|-----------------4-/7------------------|
A|--------5-5-55-55----7p5---------------|
E|-2-2-25------------------5551/555555-4-|

G|-------------------------------|
D|-------------------------------|
A|--------5-5-55-55--------------|
E|-2-2-25-----------5551/555-554-|

G|----------------------------|
D|----------------------------|
A|--------5-5-55-55--------5~-|
E|-2-2-25-----------554-5-7---|

Bridge 2:22
G|-------------------------------------------------------------------|
D|-7-7-7-7-7-7-7-7-7-7-7-7-7-7-7-7-2-2-2-2-2-2-2-2-0-0-0-0-0-0-0-0---|
A|-----------------------------------------------------------------4-|
E|-------------------------------------------------------------------|

G|------------------------------------------------------------------------|
D|------------------------------------------------------------------------|
A|-7-7-7-7-7-7-7-7-5-5-5-5-5-5-5-5-5-7-5-4-7-7-7-7-7-7-5-5-5-5-5-5-5-5555-|
E|------------------------------------------------------------------------|

Chorus
G|-------------------------------------|
D|-------------------------------------|
A|--------5-5-55-54--------------------|
E|-2-2-25-----------5-55-5-1/5-5-53-54-|

G|----------------------------------------|
D|-----------------4-/7--------------8888-|
A|--------5-5-55-55----7p5----------------|
E|-2-2-25------------------5551/5555------|

You gotta love somebody…
G|--------------------------------------------|
D|-44-4-42-00-0-0-0---------------------------|
A|-----------------400-00-0-0-00---00-0-00-0--|
E-------------------------------1/5---------4-|

G|-------------------------------------|
D|-------------------------------------|
A|--------5-5-55-54--------------------|
E|-2-2-25-----------5-55-5-1/5-5-55-54-|

Outro 3:15
… heartbeat…
G|-----------------------------------|
D|----------------7-----77-764-------|
A|--------555-5----7-9----7---7-7775-|
E|-2-2-25----------------------------|

G|--------------------------------|
D|--------------------------------|
A|--------5-5-55-54--------6-4-5~-|
E|-2-2-25-----------5-55-5--------|
            
Submit corrections

comments powered by Disqus
↑ Back to top | The Fray Bass for Heartbeat. Lyrics for acoustic guitar and electric guitar. 1 Tablatures and chords are parodies/interpretations of the original songs. You may use it for private study, scholarship, research or language learning purposes only