» » »

The Stars Are So Big I Am So Small Do I Stand A Chance Tabs (ver.1)

Artists:  A B C D E F G H I J K L M N O P Q R S T U V W X Y Z # 

The Stars Are So Big I Am So Small Do I Stand A Chance Tabs (ver.1)

Flaming Lips
Rating:
0/5 (0 votes)

Tabs too difficult? Try these video lessons and learn fast.
                The Stars Are So Big, I Am So Small... Do I Stand A Chance?
The Flaming Lips
At War With The Mystics

This is just the solo acoustic part at end of the track "It Overtakes Me/
The Stars Are So Big, I Am So Small... Do I Stand A Chance?" It's lovely.

Tuning: standard
Fingerpicked with a capo on the 9th fret. Well, you don't NEED a capo,
but it makes it easier, and that's probably how Steven played it.

   Amaj7
e|-9--------------9-------------9-------------9------------------------------|
B|----------9--------------9-------------9-------------9---------------------|
G|-------9--------------9-------------9-------------9------------------------|
D|-----11-----11------11----11------11----11------11----11-------------------|
A|-12-----12------12-----12-----12-----12-----12-----12----------------------|
E|---------------------------------------------------------------------------|
   
e|-9--------------9-------------9-------------9------------------------------|
B|----------9--------------9-------------9-------------9---------------------|
G|-------9--------------9-------------9-------------9------------------------|
D|-----11-----11------11----11------11----11------11----11-------------------|
A|-12-----12------12-----12-----12-----12-----12-----12----------------------|
E|---------------------------------------------------------------------------|
   G#m7
e|--------------11-----------11-----------11---------------------------------|
B|-9--------9------------9------------9------------9-------------------------|
G|------11-----------11-----------11-----------11----------------------------|
D|-----9-----9------9-----9------9-----9------9-----9------------------------|
A|-11-----11----11-----11----11-----11----11-----11--------------------------|
E|---------------------------------------------------------------------------|

e|-11-----------11-----------11-----------11---------------------------------|
B|----------9------------9------------9------------9-------------------------|
G|------11-----------11-----------11-----------11----------------------------|
D|-----9-----9------9-----9------9-----9------9-----9------------------------|
A|-11-----11----11-----11----11-----11----11-----11--------------------------|
E|---------------------------------------------------------------------------|
   Amaj7
e|-9--------------9-------------9-------------9------------------------------|
B|----------9--------------9-------------9-------------9---------------------|
G|-------9--------------9-------------9-------------9------------------------|
D|-----11-----11------11----11------11----11------11----11-------------------|
A|-12-----12------12-----12-----12-----12-----12-----12----------------------|
E|---------------------------------------------------------------------------|

e|-9--------------9-------------9-------------9------------------------------|
B|----------9--------------9-------------9-------------9---------------------|
G|-------9--------------9-------------9-------------9------------------------|
D|-----11-----11------11----11------11----11------11----11-------------------|
A|-12-----12------12-----12-----12-----12-----12-----12----------------------|
E|---------------------------------------------------------------------------|
   C#7
e|-9-----------9-----------9-----------9-------------------------------------|
B|---------9-----------9-----------9-----------9-----------------------------|
G|-----10----------10----------10----------10--------------------------------|
D|----9-----9-----9-----9-----9-----9-----9-----9----------------------------|
A|-------11----------11----------11----------11------------------------------|
E|-9-----------9-----------9-----------9-------------------------------------|

e|-9-----------9-----------9-----------9-------------------------------------|
B|---------9-----------9-----------9-----------9-----------------------------|
G|-----10----------10----------10----------10--------------------------------|
D|----9-----9-----9-----9-----9-----9-----9-----9----------------------------|
A|-------11----------11----------11----------11------------------------------|
E|-9-----------9-----------9-----------9-------------------------------------|
   F#m7
e|-9------------9------------9------------9----------------------------------|
B|--------10-----------10-----------10-----------10--------------------------|
G|------9------------9------------9------------9-----------------------------|
D|----11----11-----11----11-----11----11-----11----11------------------------|
A|-9-----9------9-----9------9-----9------9-----9----------------------------|
E|---------------------------------------------------------------------------|

e|-9------------9------------9------------9----------------------------------|
B|--------10-----------10-----------10-----------10--------------------------|
G|------9------------9------------9------------9-----------------------------|
D|----11----11-----11----11-----11----11-----11----11------------------------|
A|-9-----9------9-----9------9-----9------9-----9----------------------------|
E|---------------------------------------------------------------------------|
   Amaj7
e|-9--------------9-------------9-------------9------------------------------|
B|----------9--------------9-------------9-------------9---------------------|
G|-------9--------------9-------------9-------------9------------------------|
D|-----11-----11------11----11------11----11------11----11-------------------|
A|-12-----12------12-----12-----12-----12-----12-----12----------------------|
E|---------------------------------------------------------------------------|

e|-9--------------9-------------9--------9----9------------------------------|
B|----------9--------------9---------------------------9---------------------|
G|-------9--------------9-------------9-------------9------------------------|
D|-----11-----11------11----11------11----11------11----11-------------------|
A|-12-----12------12-----12-----12-----12-----12-----12----------------------|
E|---------------------------------------------------------------------------|
   E                                     Emaj7
e|---------------------------------------------------------------------------|
B|-9------------------9------------------9-----------------------------------|
G|-9------------------9------------------9-----------------------------------|
D|-9------------------9------------------13----------------------------------|
A|-11-----------------11-----------------11----------------------------------|
E|-12-----------------12-----------------12----------------------------------|




| /  slide up
| \  slide down
| h  hammer-on
| p  pull-off
| ~  vibrato
| +  harmonic
| x  Mute note
            
Tabs too difficult? Try these video lessons and learn fast.




comments powered by Disqus
↑ Back to top | Tablatures and chords are parodies/interpretations of the original songs. You may use it for private study, scholarship, research or language learning purposes only