» » »

Placebo Headwound Tabs (ver.1)

Artists:  A B C D E F G H I J K L M N O P Q R S T U V W X Y Z # 

Placebo Headwound Tabs (ver.1)

Flaming Lips
Rating:
0/5 (0 votes)

Hard to play? Try these video lessons and learn fast.
                PLACEBO HEADWOUND


Intro:
F    Am    G      C
------------------0--
------------------1--
---5--------------0--
-3---3-2-0-----0--2--
-----------3-2----3--
------------------3--

verse chords:
Gmaj9   D  A  G  [this bass line follows the G:]
-2------2--2--3---------------------------
-3------3--2--3---------------------------
-0------2--2--0---------------------------
-0------0--2--0----0-------------0--------
-0------0--0--2------2-0---0-2-4----------
-3------0--0--3----------3----------------

  Gmaj9
  Where does outer space end
  it's sort of hard to imagine
        D-A-G  D             A      G
  Is it real?  Is it nothin, nothin?

chorus chords:
Em  B  C  D [bass follows:]   D7
-7--7--0--2--------------------0--------------------
-8--7--1--3--------------------3--------------------
-9--8--0--2--------------------5--------------------
-9--9--2--0--------------------4------------------------
-7--9--3--0---5---5---5---5----5----------------------
-7--7--3--0-----5---5---5---5--------------------

  Em-B-Em-B [Ooooh....]
  Em                B                C   D  D7
  Cause it's not so clear anymore to me...

[Same chord progression for rest of song]

  Why do birds always fly south
  when sometimes its warm in yer headwound
  Is that nothin? Nothin?
  Cause its not so clear anymore to me...

  And if God hears all my questions
  well how come there's never an answer?
  Is it nothin, nothin?


[Song ends with chords D-A with guitar solo]
[Don't even ask how to play that solo, that's something
only Ronald will ever know.]
            
Hard to play? Try these video lessons and learn fast. | Correct




comments powered by Disqus
↑ Back to top | Tablatures and chords are parodies/interpretations of the original songs. You may use it for private study, scholarship, research or language learning purposes only