» » »

It Overtakes Me Bass tabs (ver.1)

Artists:  A B C D E F G H I J K L M N O P Q R S T U V W X Y Z # 

It Overtakes Me Bass tabs (ver.1)

Flaming Lips
Rating:
4/5 (3 votes)

Tabs too difficult? Try these video lessons and learn fast.
                
The Flaming Lips



Standard tuning: E A D G

This is my first time putting together a tab, so hopefully this is close to the 
This song is very simple, but lots of fun to play. There are breaks from the bass part when 
come in near the beginning.


|------------------------------------------|
|------------------------------------------|
|--7—-4-2-4-7—-4-2-4-7—-4-2---0-4-5-7------| 4X with breaks in between
|------------------------------------------|


|------------------------------------------------------------------|
|------------------------------------------------------------------|
|--16-14-16-14-11---16-14-16-14-11---16-14-16-14-11---11-9-11-9-6--| 2X
|------------------------------------------------------------------|

|------------------------------------------|
|------------------------------------------|
|--7—-4-2-4-7—-4-2-4-7—-4-2---0-4-5-7------|
|------------------------------------------|

|------------------------------------------------------------------|
|------------------------------------------------------------------|
|--16-14-16-14-11---16-14-16-14-11---16-14-16-14-11---11-9-11-9-6--| 2X
|------------------------------------------------------------------|

|------------------------------------------|
|------------------------------------------|
|--7—-4-2-4-7—-4-2-4-7—-4-2---0-4-5-7------|
|------------------------------------------|

|---------------------------------------------------------|
|---------------------------------------------------------|
|-----0--4-------0--2-------0--4------0--2-------2-2-2-2--|
|--2----------2----------2---------2----------------------|

|------------------------------------------|
|------------------------------------------|
|--7—-4-2-4-7—-4-2-4-7—-4-2---0-4-5-7------|  2X
|------------------------------------------|

|-----------------------------------------------------------------------|
|-----------------------------------------------------------------------|
|--16-14-16-14-11---16-14-16-14-11---16-14-16-14-11---11-9-11-9-6-------| 2X
|-----------------------------------------------------------------------|

|-----------------------------------------------------------------------|
|-----------------------------------------------------------------------|
|-7—-4-2-4-7—-4-2-4-7—-4-2---0-4-5-7-—-4-2-4-7—-4-2-4-7—-4-2---0-4-5----|
|--------------------------------------------------------------------0--|

Last part is played 2X
            
Tabs too difficult? Try these video lessons and learn fast.




comments powered by Disqus
↑ Back to top | Tablatures and chords are parodies/interpretations of the original songs. You may use it for private study, scholarship, research or language learning purposes only