» » »

Convinced Of The Hex Bass tabs (ver.1)

Artists:  A B C D E F G H I J K L M N O P Q R S T U V W X Y Z # 

Convinced Of The Hex Bass tabs (ver.1)

Flaming Lips
Rating:
5/5 (2 votes)

Tabs too difficult? Try these video lessons and learn fast.
                The Flaming Lips - Convinced of the Hex (bass tab)

This song is a very easy and fun song to jam to. 
There are three "main" progressions, but Michael
(the bassist of the Flaming Lips) plays different 
variations throughout. Rather than tab all of those 
variations every time they happen, I'll just give 
you the main progressions, and some of the 
variations he does. Enjoy!


Intro: (0:22-0:34)
G|--------------------|
D|--7~-----7h8p7~-----| x6
A|--------------------|
E|--------------------|


Verse 1: (0:35-0:59)
G|--------------------||--------------------|
D|---7~-----7--7~-----||--7~-----7h8p7~-----|
A|--------------------||--------------------|
E|--------------------||--------------------|
*Switch between these two riffs as you please*


Post-Verse 1: (1:00-1:14)
G|---7~-----7--7~-----||--7~-----7h8p7~-----|
D|--------------------||--------------------|
A|--------------------||--------------------|
E|--------------------||--------------------|
*Switch between these two riffs as you please*


Verse 2:(1:15-1:46)
G|--------------------||--------------------|
D|---7~-----7--7~-----||--7~-----7h8p7~-----|
A|--------------------||--------------------|
E|--------------------||--------------------|
*Switch between...*


Post-Verse 2: (1:47-2:01)
G|---7~-----7--7~-----||--7~-----7h8p7~-----|
D|--------------------||--------------------|
A|--------------------||--------------------|
E|--------------------||--------------------|
*Switch between...*


Verse 3, part 1:(2:02-2:25)
G|--------------------||--------------------||--------------------|
D|---7~-----7--7~-----||--7~-----7h8p7~-----||---7~-----7--7~--7~-|
A|--------------------||--------------------||--------------------|
E|--------------------||--------------------||--------------------|
*the last one can be heard at 2:23-2:25


Verse 3, part 2 (2:26-2:41)
G|---7~-----7--7~-----||--7~-----7h8p7~-----||--7~-----7--7\\\\0--|
D|--------------------||--------------------||--------------------|
A|--------------------||--------------------||--------------------|
E|--------------------||--------------------||--------------------|
*the last one can be heard at 2:35-2:37


Jam, part 1: (2:41-2:49)
G|--------------------||--------------------|
D|---7~-----7--7~-----||--7~-----7h8p7~-----|
A|--------------------||--------------------|
E|--------------------||--------------------|
*Switch between...*


Jam, part 2: (2:49-3:05)
G|--------------------|---------------------|
D|---7~~~-------------|---------------------| x4
A|--------------------|---7~~~--------------|
E|--------------------|---------------------|


Jam, part 3: (3:05-3:21)
G|--------------------||--------------------|
D|---7~-----7--7~-----||--7~-----7h8p7~-----|
A|--------------------||--------------------|
E|--------------------||--------------------|
*Switch between...*


Jam, part 4: (3:21-3:36)
G|---7~-----7--7~-----||--7~-----7h8p7~-----|
D|--------------------||--------------------|
A|--------------------||--------------------|
E|--------------------||--------------------|
*Switch between...*


Jam, part 5: (3:36-3:44)
G|--------------------||--------------------|
D|---7~-----7--7~-----||--7~-----7h8p7~-----|
A|--------------------||--------------------|
E|--------------------||--------------------|
*Switch between...*


End (3:44-3:48)
G|----------------------------------------|
D|------7h8h9-------7h8h9-----------7h9p7-|
A|----------------------------------------|
E|----------------------------------------|
*This is the only part I'm not entirely sure about*


And...done! If you have any questions, feel free to leave a comment.

| /  slide up
| \  slide down
| h  hammer-on
| p  pull-off
| ~  vibrato
| +  harmonic
| x  Mute note
            
Tabs too difficult? Try these video lessons and learn fast.


comments powered by Disqus
↑ Back to top | Tablatures and chords are parodies/interpretations of the original songs. You may use it for private study, scholarship, research or language learning purposes only