» » »

Becks Bass tabs (ver.1)

Artists:  A B C D E F G H I J K L M N O P Q R S T U V W X Y Z # 

Becks Bass tabs (ver.1)

Flaming Lips
Rating:
0/5 (0 votes)

Hard to play? Try these video lessons and learn fast.
                youshould sell your granny for this and when you learn this play until your fingers bleed!

:first bit:
---------------------------------------------------|
----------------------------------------------3----|
---5-5-0-2-0-2-5-5-0-2-0-2-5-5-0-2-0-2----0-2------|
---------------------------------------2-3---------|x2

:second bit:
---------------------------------------------------|
---------------------------------------------------|
---5-3-5-3-0-5-3-5-3-0-----------------------------|
-----------------------5-3-5-3-0-5-3-5-3-0---------|x2

:then:
------------|
------------|
---0-2------|
------------|(back to first bit)

play your tits off when you learn it!


timber44 (^v^)
            
Hard to play? Try these video lessons and learn fast. | Correct




comments powered by Disqus
↑ Back to top | Tablatures and chords are parodies/interpretations of the original songs. You may use it for private study, scholarship, research or language learning purposes only