» » »

Burning Up Chords (ver.1)

Artists:  A B C D E F G H I J K L M N O P Q R S T U V W X Y Z # 

Burning Up Chords (ver.1)

The Expendables
Rating:
4/5 (2 votes)

Tabs too difficult? Try these video lessons and learn fast.
                
                
              Intro/verse:  2 upstrokes for each chord
                  E  B  F#m  A
                --7--7----9--5----
                --9--7---10--5----  
                --9--8---11--6----
                --9--9---11--7----
                --7--9----9--7----
                --7--7----9--5----

                   Chorus
                C#m     A      B
              ---9------5------7----
              ---9------5------7----
              ---9--x4--6--x2--8----
              --11------7------9---- 
              --11------7------9----
              ---9------5------7----    
            
Tabs too difficult? Try these video lessons and learn fast.




comments powered by Disqus
↑ Back to top | Tablatures and chords are parodies/interpretations of the original songs. You may use it for private study, scholarship, research or language learning purposes only