» » »

The Dodos, Walking Tabs (ver.2)

Artists:  A B C D E F G H I J K L M N O P Q R S T U V W X Y Z # 

Walking Tabs (ver.2)

The Dodos Tabs
Rating:
4/5 (2 votes)
Walking lessons Tabs too difficult? Try these video lessons and learn fast
                Open A tuning. I tabbed out the first half of the song, so just repeat it.
Thanks,

Jake Miller


You can fight the fire thats in your head
E |-----------------------------------------------------|
A |-------0-------0-------0-------0---------------------|
E |---0-------7p0-----0-------0-------------------------|
C#|-----8-------8-------8-------8-----------------------|
A |-9-------9-------7-------0---------------------------|
E |-----------------------------------------------------|

Lay it down the hour has come to rest
E |-----------------------------------------------------|
A |-------0-------0-------0-------0---------------------|
E |---0-------7p0-----0-------0-------------------------|
C#|-----8-------8-------8-------8-----------------------|
A |-9-------9-------7-------0---------------------------|
E |-----------------------------------------------------|

Walk around with out it just for a bit
E |-----------------------------------------------------|
A |-------0-------0-------0-------0---------------------|
E |---0-------7p0-----0-------0-------------------------|
C#|-----8-------8-------8-------8-----------------------|
A |-9-------9-------7-------0---------------------------|
E |-----------------------------------------------------|

Looking back upon the way things have been
E |-----------------------------------------------------|
A |-------0-------0-------0-------0---------------------|
E |---0-------7p0-----0-------0-------------------------|
C#|-----8-------8-------8-------8-----------------------|
A |-9-------9-------7-------0---------------------------|
E |-----------------------------------------------------|

Now Ive been wasting so much time
E |-----------------------------------------------------------------|
A |-2/4-------4-------------2-----------------0-------0-------0-----|
E |-------0---------2---0-----------------0-------0-------0-------0-|
C#|-------------------------------------0-------0-------0-------0---|
A |-----4-------4-------4-------2-----------------------------------|
E |-0-------0-------0-------0-------9-------9-------7-------7-------|

Walking the same street every night
E |-----------------------------------------------------------------|
A |-2/4-------4-------------2-----------------0-------0-------0-----|
E |-------0---------2---0-----------------0-------0-------0-------0-|
C#|-------------------------------------0-------0-------0-------0---|
A |-----4-------4-------4-------2-----------------------------------|
E |-0-------0-------0-------0-------9-------9-------7-------7-------|

Dont you think maybe its about time
E |-----------------------------------------------------------------|
A |-2/4-------4-------------2-----------------0-------0-------0-----|
E |-------0---------2---0-----------------0-------0-------0-------0-|
C#|-------------------------------------0-------0-------0-------0---|
A |-----4-------4-------4-------2-----------------------------------|
E |-0-------0-------0-------0-------9-------9-------7-------7-------|

E |-----------------------------------------------------------------|
A |-2/4-------4-----4-----4p2-0-----0h2-------2-----2---------0-----|
E |-------0-------------------------------0---------------0---------|
C#|-----3-------3-------3-------3-------2-------2-------2-------2---| x2
A |-0-------0-------0-------0-------0-------0-------0-------0-------|
E |-----------------------------------------------------------------|

Repeat all
            
Submit corrections

comments powered by Disqus
↑ Back to top | The Dodos Tabs for Walking. Lyrics for acoustic guitar and electric guitar. Tablatures and chords are parodies/interpretations of the original songs. You may use it for private study, scholarship, research or language learning purposes only