» » »

The Dodos, Trades And Tariffs Tabs (ver.1)

Artists:  A B C D E F G H I J K L M N O P Q R S T U V W X Y Z # 

Trades And Tariffs Tabs (ver.1)

The Dodos Tabs
 Rating:
4.4/5 (7 votes)
Trades And Tariffs lessons Tabs too difficult? Try these video lessons and learn fast
                e|-----------------------2-5--5-2--0--2-0--------------|
B|-----------------3--0-3--------3---------3-----------|
G|-----------------------------------------------------|
D|---0---0---0---0---0---0---0---0---0---0---0---0-----|
A|-0---0---0---0---0---0---0---0---0---0---0---0-------|
E|-----------------------------------------------------|

e|----2--5--5-2--0--2-0----2---2-------|
B|-0h3--3------3---------3-3---3-------|
G|-------------------------2---2-------|
D|---0---0---0---0---0---0-0-0-0-0-----|
A|-0---0---0---0---0---0---0---0-------|
E|-------------------------------------|

e|-----------------------2-5--5-2--0--2-0--------------|
B|-----------------3--0-3--------3---------3-----------|
G|-----------------------------------------------------|
D|---0---0---0---0---0---0---0---0---0---0---0---0-----|
A|-0---0---0---0---0---0---0---0---0---0---0---0-------|
E|-----------------------------------------------------|

e|----2--5--5-2--0--2-0----2---2-------|
B|-0h3--3------3---------3-3---3-------|
G|-------------------------2---2-------|
D|---0---0---0---0---0---0-0-0-0-0-----|
A|-0---0---0---0---0---0---0---0-------|
E|-------------------------------------|

e|-------2-2-2-2-2-2-2-2-2-2-2-2-2---------------------|
B|---3p0-----------------------------------------------|
G|-----------------------------------------------------|
D|---0---4---4---4---4---4---4---4---------------------|
A|-0---0---0---0---0---0---0---0-----------------------|
E|-----------------------------------------------------|

  Pace back and forth along this road
e|-----------------------------------    ----------------|
B|-----------------------------------    ----------------|
G|-----------------------------------    ----------------|
D|---0---0---0---4---4---2---2---2---    ---0---0---0---0|
A|-0---0---0---0---0---0---0---0----- x8 -0---0---0---0--|
E|-----------------------------------    ----------------|

 You give me yours,  I give  you mine,  you never want it
e|------10--------10-------7-------7---------2-2-2-2---2--|
B|---12--------12--------8-------8------------------------|
G|--------------------------------------------------------|
D|---12---12---12---12---9---9---9---9---9---4---4---4---4|
A|-0----0----0----0----0---0---0---0---0---0---0---0---0--|
E|--------------------------------------------------------|

You never want it. I gave you yours, now give me mine
e|---2-2-2-2---2----10--------10-------7-------7----------|
B|---------------12--------12--------8-------8------------|
G|--------------------------------------------------------|
D|---4---4---4---12---12---12---12---9---9---9---9---9----|
A|-0---0---0---0----0----0----0----0---0---0---0---0------|
E|--------------------------------------------------------|

I never want it, I never want it at all
e|---2-2-2-2---2-----2-2-2-2---2---5-------5-------0-----|
B|-------------------------------3-------3-------3-------|
G|-------------------------------------------------------|
D|---4---4---4---4---4---4---4---0---0---0---0---0---0---|
A|-0---0---0---0---0---0---0---0---0---0---0---0---0-----|
E|-------------------------------------------------------|

e|---2p0-------------------------------0-2-3---5-------5---|
B|-----3---0-----3---5p30--------0-2-3-------3-------3-----|
G|-------------------------2---2---------------------------|
D|---0---0---0---0---0---0---0---0---0---0---0---0---0---0-|
A|-0---0---0---0---0---0---0---0---0---0---0---0---0---0---|
E|---------------------------------------------------------|

e|-----0-----2p0-------------------------------0-2-3---|
B|---3---------3---0-----3---5p30---------0-2-3--------|
G|---------------------------------2---2---------------|
D|---0---0---0---0---0---0---0---0---0---0---0---0-----|
A|-0---0---0---0---0---0---0---0---0---0---0---0---0---|
E|-----------------------------------------------------|

e|-----5-------5-------2-------2-------5--------5------0---|
B|---3-------3-------3-------3-------3-------3-------3-----|
G|---------------------------------------------------------|
D|---0---0---0---0---0---0---0---0---0---0---0---0---0---0-|
A|-0---0---0---0---0---0---0---0---0---0---0---0---0---0---|
E|---------------------------------------------------------|

e|---2p0---------2-2-2-2-2-2-2-2-2-2-2-2-2-2-2-----------|
B|-----3-----3p0-----------------------------------------|
G|-------------------------------------------------------|
D|---0---0---0---4---4---4---4---4---4---4---4-----------|
A|-0---0---0---0---0---0---0---0---0---0---0-------------|
E|-------------------------------------------------------|

  The past, a creation we defy
e|-----------------------------------    ----------------|
B|-----------------------------------    ----------------|
G|-----------------------------------    ----------------|
D|---0---0---0---4---4---2---2---2---    ---0---0---0---0|
A|-0---0---0---0---0---0---0---0----- x8 -0---0---0---0--|
E|-----------------------------------    ----------------|

   You give me yours,  I give  you mine,  you never want it
e|------10--------10-------7-------7---------2-2-2-2---2--|
B|---12--------12--------8-------8------------------------|
G|--------------------------------------------------------|
D|---12---12---12---12---9---9---9---9---9---4---4---4---4|
A|-0----0----0----0----0---0---0---0---0---0---0---0---0--|
E|--------------------------------------------------------|

You never want it. I gave you yours, now give me mine
e|---2-2-2-2---2----10--------10-------7-------7----------|
B|---------------12--------12--------8-------8------------|
G|--------------------------------------------------------|
D|---4---4---4---12---12---12---12---9---9---9---9---9----|
A|-0---0---0---0----0----0----0----0---0---0---0---0------|
E|--------------------------------------------------------|

I never want it, I never want it at all
e|---2-2-2-2---2-----2-2-2-2---2---5-------5-------0-----|
B|-------------------------------3-------3-------3-------|
G|-------------------------------------------------------|
D|---4---4---4---4---4---4---4---0---0---0---0---0---0---|
A|-0---0---0---0---0---0---0---0---0---0---0---0---0-----|
E|-------------------------------------------------------|

e|---2p0-------------------------------0-2-3---5-------5---|
B|-----3---0-----3---5p30--------0-2-3-------3-------3-----|
G|-------------------------2---2---------------------------|
D|---0---0---0---0---0---0---0---0---0---0---0---0---0---0-|
A|-0---0---0---0---0---0---0---0---0---0---0---0---0---0---|
E|---------------------------------------------------------|

e|-----0-----2p0-------------------------------0-2-3---|
B|---3---------3---0-----3---5p30---------0-2-3--------|
G|---------------------------------2---2---------------|
D|---0---0---0---0---0---0---0---0---0---0---0---0-----|
A|-0---0---0---0---0---0---0---0---0---0---0---0---0---|
E|-----------------------------------------------------|

e|-----5-------5-------2-------2---    -----5-------5-------2-2-2-2|
B|---3-------3-------3-------3-----    ---3-------3-------3-3-3-3-3|
G|---------------------------------    ---------------------2-3-2-2|
D|---0---0---0---0---0---0---0---0-    ---0---0---0---0---0-0-0-0-0|
A|-0---0---0---0---0---0---0---0--- x9 -0---0---0---0---0---0-0-0-0|
E|---------------------------------    ---------------------------|

e|-2-2-2-2-------2-5--5-2--0--2-0--------------|
B|-3-3-3-3-3--0-3--------3---------3-----------|
G|-2-2-2-2-------------------------------------|
D|-0-0-0-0-0-0-0-0-0-0-0-0-0-0-0-0-0-0-0-0-----|
A|-0-0-0-0-------------------------------------|
E|---------------------------------------------|

e|----2--5--5-2--0--2-0----2---2-------|
B|-0h3--3------3---------3-3---3-------|
G|-------------------------2---2-------|
D|-0-0-0-0-0-0-0-0-0-0-0-0-0-0-0-0-----|
A|-------------------------------------|
E|-------------------------------------|

e|-------2-5--5-2--0--2-0----------|
B|-3--0-3--------3---------3-------|
G|---------------------------------|
D|-0-0-0-0-0-0-0-0-0-0-0-0-0-0-0-0-|
A|---------------------------------|
E|---------------------------------|

e|----2--5--5-2--0--2-0----2---2-|
B|-0h3--3------3---------3-3---3-|
G|-------------------------2---2-|
D|-0-0-0-0-0-0-0-0-0-0-0-0-0-0-0-|
A|-------------------------------|
E|-------------------------------|

E|-------2-5--5-2--9--9-7--10-107--14-14-14-1210-10---10-1010--12--|
B|-3--0-3--------3-------8-------8--15--15-----12---12-----12--12--|
G|---------------------------------------------------------12--12--|
D|---0---0---0---0---0---0---0---0---0---0---0---0---0---0-0-0-0-0-|
A|-0---0---0---0---0---0---0---0---0---0---0---0---0---0---0---0---|     x4
E|-----------------------------------------------------------------|

e|-10--10------------------------------------------------------|
B|-12--12------------------------------------------------------|
G|-12--12------------------------------------------------------|
D|-0---0-------------------------------------------------------|
A|-------------------------------------------------------------|   x2
E|-------------------------------------------------------------|

  Faith in the giving world has died
e|-----------------------------------    ----------------|
B|-----------------------------------    ----------------|
G|-----------------------------------    ----------------|
D|---0---0---0---4---4---2---2---2---    ---0---0---0---0|
A|-0---0---0---0---0---0---0---0----- x8 -0---0---0---0--|
E|-----------------------------------    ----------------|

   You give me yours,  I give  you mine,  you never want it
e|------10--------10-------7-------7---------2-2-2-2---2--|
B|---12--------12--------8-------8------------------------|
G|--------------------------------------------------------|
D|---12---12---12---12---9---9---9---9---9---4---4---4---4|
A|-0----0----0----0----0---0---0---0---0---0---0---0---0--|
E|--------------------------------------------------------|

You never want it. I gave you yours, now give me mine
e|---2-2-2-2---2----10--------10-------7-------7----------|
B|---------------12--------12--------8-------8------------|
G|--------------------------------------------------------|
D|---4---4---4---12---12---12---12---9---9---9---9---9----|
A|-0---0---0---0----0----0----0----0---0---0---0---0------|
E|--------------------------------------------------------|

I never want it, I never want it at all
e|---2-2-2-2---2-----2-2-2-2---2---5-------5-------2-------2-----|
B|-------------------------------3-------3-------3-------3-------|
G|---------------------------------------------------------------|
D|---4---4---4---4---4---4---4---0---0---0---0---0---0---0---0---|
A|-0---0---0---0---0---0---0---0---0---0---0---0---0---0---0-----|
E|---------------------------------------------------------------|

e|-----5-------5-------2-------2---   -----5-------5-------0---|
B|---3-------3-------3-------3-----   ---3-------3-------3-----|
G|---------------------------------   -------------------------|
D|---0---0---0---0---0---0---0---0-   ---0---0---0---0---0---0-|
A|-0---0---0---0---0---0---0---0---x6 -0---0---0---0---0---0---|
E|---------------------------------   -------------------------|

e|-----0-----2p0---------------------------------------|
B|---3---------3---------------------------------------|
G|-----------------------------------------------------|
D|---0---0---0-----------------------------------------|
A|-0---0---0---0---------------------------------------|
E|-----------------------------------------------------|

I think I'm about 99% on this song, so i hope you enjoy trying to learn this one. Good Luck

Jake Miller
            
Submit corrections

comments powered by Disqus
↑ Back to top | The Dodos Tabs for Trades And Tariffs. Lyrics for acoustic guitar and electric guitar. Tablatures and chords are parodies/interpretations of the original songs. You may use it for private study, scholarship, research or language learning purposes only