>
 >
Paint The Rust Full

Paint The Rust Full Guitar Tabs

The Dodos - Paint The Rust Full chords, tabs, tablatures, lyrics

Guitar lessons | Add/correct | Request | Top 50 tabs Artists:  A B C D E F G H I J K L M N O P Q R S T U V W X Y Z 0-9

Paint The Rust Full Guitar Tabs – The Dodos

CD, Sheet music, Poster

Do you like Paint The Rust Full? Share with your friends now
Tabs
There was a tab for this one already but it wasnt that good. So, i made a full version of it.
Its really fun to play when you get it down.
Thanks,

Jake Miller


d|-0h2-0-------------------0h2-0--------------|
B|---------0---3-------------------0---3---0--|
G|-0---0---0---0---0---0---0---0---0---0---0--| 
D|--------------------------------------------|
G|--------------------------------------------|
D|--------------------------------------------|

d|---------3-----------3-----------2-----------2------|
B|-------------0-----------0-----------1-----------1--|
G|-0---0---0---0---0---0---0---0---0---0---0---0---0--| The above and this one x4
D|----------------------------------------------------|
G|----------------------------------------------------|
D|----------------------------------------------------|

d|-0h2-0-------------------0h2-0------------------|
B|---------0---3---0---------------0---3---0------|
G|---------------------------------------------0--| 
D|------------------------------------------------|
G|-0---0---0---0---0---0---0---0---0---0---0---0--|
D|------------------------------------------------|

d|------------------------------------------------|
B|-------0---------------0---------------0--------|
G|-3-----------3---2---------2-----0---------0----| The one above and this one x4
D|-----------0-----------------------0------------|
G|------------------------------------------------|
D|-0---0---0---0---0---0---0---0---2---2/--4---0--|

 Run into the sea before it comes
d|-----------------------------------------------------------|
B|-0-----------0---3---0---3-----------0---5---3---0---------|
G|-----------------------------------------------------------|
D|-----------------------------------------------------------|
G|-0---0---0---0---0---0---0---0---0---0---0---0---0---0---0-|
D|-----------------------------------------------------------|

A heavy hand washing over you.
d|-----------------------------------------------|
B|-0---3---0---3-----------------------0---------|
G|---------------------0---2---0---2-------------|
D|-----------------------------------------------|
G|-0---0---0---0---0---0---0---0---0---0---0---0-|
D|-----------------------------------------------|

I see the face of many men
d|-------------------------------------------|
B|-0---3---0---3-----------0---5---3---0-----|
G|-------------------------------------------|
D|-------------------------------------------|
G|-0---0---0---0---0---0---0---0---0---0---0-|
D|-------------------------------------------|

Beyond the beach, drowning in the blue
d|---------------------------------------------------|
B|-0---3---0---3-------------------------------------|
G|-------------------------4---2---0---2---0---------|
D|---------------------------------------------------|
G|-0---0---0---0---0---0---0---0---0---0---0---0---0-|
D|---------------------------------------------------|

They come to seek the open land
d|-------------------------------------------|
B|-0---3---0---3-----------0---5---3---0-----|
G|-------------------------------------------|
D|-------------------------------------------|
G|-0---0---0---0---0---0---0---0---0---0---0-|
D|-------------------------------------------|

They grab a piece before others do
d|-----------------------------------------------|
B|-0---3---0---3-----------------------0---------|
G|---------------------0---2---0---2-------------|
D|-----------------------------------------------|
G|-0---0---0---0---0---0---0---0---0---0---0---0-|
D|-----------------------------------------------|

Its all because the master plan
d|-------------------------------------------|
B|-0---3---0---3-----------0---5---3---0-----|
G|-------------------------------------------|
D|-------------------------------------------|
G|-0---0---0---0---0---0---0---0---0---0---0-|
D|-------------------------------------------|

Were supposed to teach only if they
d|---------------------------------------|
B|-0---3---0---3-------------------------|
G|-------------------------4---2---0---2-|
D|---------------------------------------|
G|-0---0---0---0---0---0---0---0---0---0-|
D|---------------------------------------|

Knew
d|-0h2-0-------------------0h2-0------------------|
B|---------0---3---0---------------0---3---0------|
G|---------------------------------------------0--| 
D|------------------------------------------------|
G|-0---0---0---0---0---0---0---0---0---0---0---0--|
D|------------------------------------------------|

d|------------------------------------------------|
B|-------0---------------0---------------0--------|
G|-3-----------3---2---------2-----0---------0----| The one above and this one x2
D|-----------0-----------------------0------------|
G|------------------------------------------------|
D|-0---0---0---0---0---0---0---0---2---2/--4---0--|

Please, just tell us what you want well get it for you.
d|---------------------------------------------------------------|
B|---------------------------------------------------------------|
G|-10------------------10--10--9---7---9---7---6---7---0---3---5-| 
D|---------------------------------------------------------------|
G|-0---0---0---0---0---0---0---0---0---0---0---0---0---0---0---0-|
D|---------------------------------------------------------------|

d|---------0-----------0---------|
B|---------0-----------0---------|
G|---------5-----------5---------| The one above and this one x3
D|---------0-----------0---------|
G|-0---0---0---0---0---0---0---0-|
D|-------------------------------|

d|-6--5--3--0----3--5--0--3----6--5--3--0----3--5--0--3-|
B|-6--5--3--0----3--5--0--3----6--5--3--0----3--5--0--3-|
G|-6--5--3--0----3--5--0--3----6--5--3--0----3--5--0--3-|
D|-6--5--3--0----3--5--0--3----6--5--3--0----3--5--0--3-|
G|-6--5--3--0----3--5--0--3----6--5--3--0----3--5--0--3-|
D|-6--5--3--0----3--5--0--3----6--5--3--0----3--5--0--3-|

d|-3--2--1--12---6--5--3--0---3--5--0--3---6--5--3--0---3--5--0--3---4-/-15-|
B|-3--2--1--12---6--5--3--0---3--5--0--3---6--5--3--0---3--5--0--3---4-/-15-|
G|-3--2--1--12---6--5--3--0---3--5--0--3---6--5--3--0---3--5--0--3---4-/-15-|
D|-3--2--1--12---6--5--3--0---3--5--0--3---6--5--3--0---3--5--0--3---4-/-15-|
G|-3--2--1--12---6--5--3--0---3--5--0--3---6--5--3--0---3--5--0--3---4-/-15-|
D|-3--2--1--12---6--5--3--0---3--5--0--3---6--5--3--0---3--5--0--3---4-/-15-|

Face the everyday from mornings gold
d|-----------------------------------------------------------|
B|-0-----------0---3---0---3-----------0---5---3---0---------|
G|-----------------------------------------------------------|
D|-----------------------------------------------------------|
G|-0---0---0---0---0---0---0---0---0---0---0---0---0---0---0-|
D|-----------------------------------------------------------|

To when the night tries to overcome
d|-----------------------------------------------|
B|-0---3---0---3-----------------------0---------|
G|---------------------0---2---0---2-------------|
D|-----------------------------------------------|
G|-0---0---0---0---0---0---0---0---0---0---0---0-|
D|-----------------------------------------------|
Well leave this up to all of you
d|-------------------------------------------|
B|-0---3---0---3-----------0---5---3---0-----|
G|-------------------------------------------|
D|-------------------------------------------|
G|-0---0---0---0---0---0---0---0---0---0---0-|
D|-------------------------------------------|

So that you leave, take it off and run
d|---------------------------------------------------|
B|-0---3---0---3-------------------------------------|
G|-------------------------4---2---0---2---0---------|
D|---------------------------------------------------|
G|-0---0---0---0---0---0---0---0---0---0---0---0---0-|
D|---------------------------------------------------|

I see the face of every man
d|-------------------------------------------|
B|-0---3---0---3-----------0---5---3---0-----|
G|-------------------------------------------|
D|-------------------------------------------|
G|-0---0---0---0---0---0---0---0---0---0---0-|
D|-------------------------------------------|

Of every girl that Ive ever loved
d|-----------------------------------------------|
B|-0---3---0---3-----------------------0---------|
G|---------------------0---2---0---2-------------|
D|-----------------------------------------------|
G|-0---0---0---0---0---0---0---0---0---0---0---0-|
D|-----------------------------------------------|

They sing the same until the dawn
d|-------------------------------------------|
B|-0---3---0---3-----------0---5---3---0-----|
G|-------------------------------------------|
D|-------------------------------------------|
G|-0---0---0---0---0---0---0---0---0---0---0-|
D|-------------------------------------------|

When were away off into the 
d|---------------------------------------|
B|-0---3---0---3-------------------------|
G|-------------------------4---2---0---2-|
D|---------------------------------------|
G|-0---0---0---0---0---0---0---0---0---0-|
D|---------------------------------------|

Sun
d|-0h2-0-------------------0h2-0------------------|
B|---------0---3---0---------------0---3---0------|
G|---------------------------------------------0--| 
D|------------------------------------------------|
G|-0---0---0---0---0---0---0---0---0---0---0---0--|
D|------------------------------------------------|

d|------------------------------------------------|
B|-------0---------------0---------------0--------|
G|-3-----------3---2---------2-----0---------0----| The one above and this one x2
D|-----------0-----------------------0------------|
G|------------------------------------------------|
D|-0---0---0---0---0---0---0---0---2---2/--4---0--|

Please, just tell us what you want well get it for you
d|---------------------------------------------------------------|
B|---------------------------------------------------------------|
G|-10------------------10--10--9---7---9---7---6---7---0---3---5-| 
D|---------------------------------------------------------------|
G|-0---0---0---0---0---0---0---0---0---0---0---0---0---0---0---0-|
D|---------------------------------------------------------------|

d|---------0-----------0---------|
B|---------0-----------0---------|
G|---------5-----------5---------| The one above and this one x3
D|---------0-----------0---------|
G|-0---0---0---0---0---0---0---0-|
D|-------------------------------|

d|-6--5--3--0----3--5--0--3----6--5--3--0----3--5--0--3-|
B|-6--5--3--0----3--5--0--3----6--5--3--0----3--5--0--3-|
G|-6--5--3--0----3--5--0--3----6--5--3--0----3--5--0--3-|
D|-6--5--3--0----3--5--0--3----6--5--3--0----3--5--0--3-|
G|-6--5--3--0----3--5--0--3----6--5--3--0----3--5--0--3-|
D|-6--5--3--0----3--5--0--3----6--5--3--0----3--5--0--3-|

d|-3--2--1--12---6--5--3--0---3--5--0--3---6--5--3--0---3--5--0--3---4-/-15--|
B|-3--2--1--12---6--5--3--0---3--5--0--3---6--5--3--0---3--5--0--3---4-/-15--|
G|-3--2--1--12---6--5--3--0---3--5--0--3---6--5--3--0---3--5--0--3---4-/-15--|
D|-3--2--1--12---6--5--3--0---3--5--0--3---6--5--3--0---3--5--0--3---4-/-15--|
G|-3--2--1--12---6--5--3--0---3--5--0--3---6--5--3--0---3--5--0--3---4-/-15--|
D|-3--2--1--12---6--5--3--0---3--5--0--3---6--5--3--0---3--5--0--3---4-/-15--|

Hope to come but know
d|-0-------------------------------------------------|
B|---------------------0---5-------------------0---7-|
G|---------------------------------------------------|
D|---------------------------------------------------|
G|-0---0---0---0---0---0---0---0---0---0---0---0---0-|
D|---------------------------------------------------|

I only need you when Im down
d|---------------------------------------|
B|---------8---7---5---7---5---3---5---0-|
G|---------------------------------------|
D|---------------------------------------|
G|-0---0---0---0---0---0---0---0---0---0-|
D|---------------------------------------|

Or most aroused 
d|-------------------------------------------------0-|
B|---------------------0---5-------------------0-----|
G|---------------------------------------------------|
D|---------------------------------------------------|
G|-0---0---0---0---0---0---0---0---0---0---0---0---0-|
D|---------------------------------------------------|

We only feed you when were out
d|---------------------------------------|
B|---------8---7---5---7---5---3---5---0-|
G|---------------------------------------|
D|---------------------------------------|
G|-0---0---0---0---0---0---0---0---0---0-|
D|---------------------------------------|

I wont forget, I will keep you
d|-----------------------------------------------|
B|-------------5---3---0---3-------0-------------|
G|-------------------------------------2---0---2-|
D|-----------------------------------------------|
G|-0---0---0---0---0---0---0---0---0---0---0---0-|
D|-----------------------------------------------|

Here inside my
d|-----------------------------------------------|
B|-------------5-----------------------3---------|
G|-5-------5-------5-------3-------3-------3-----|
D|-----5---------------5-------3---------------3-|
G|-5---5---5---5---5---5---3---3---3---3---3---3-|
D|-----------------------------------------------|

Head 
d|-------------12---------|		Slide from fret 9
B|-12----12--------12-----|
G|---12------12-----------|
D|------------------------| x3
G|-12--12--12--12--12--12-|
D|------------------------|

d|-------------5---------------------------------|
B|-5-----5---------5-------3-----3-----2---1---0-| This and the one above, repeat a
G|---5-------5---------------3-------3-----------|	couple of times.
D|-----------------------------------------------|
G|-5---5---5---5---5---5---3---3---3---2---1---0-|
D|-----------------------------------------------|

d|-------------12---------|		Slide from fret 9
B|-12----12--------12-----|
G|---12------12-----------|
D|------------------------| x3
G|-12--12--12--12--12--12-|
D|------------------------|

d|-10--9--7--9--3--|
B|-10--9--7--9--3--|
G|-10--9--7--9--3--|
D|-10--9--7--9--3--|
G|-10--9--7--9--3--|
D|-10--9--7--9--3--|

Here we are, past the stone
d|-0--0--0----0--0--0----0--0--0--0--|
B|-0--3--0----5--3--0----0--0--0--0--|
G|-0--0--0----0--0--0----2--2--0--3--|
D|-0--0--0----0--0--0----0--0--0--0--| Repeat a bunch of times
G|-0--0--0----0--0--0----0--0--0--0--|
D|-0--0--0----0--0--0----0--0--0--0--|

d|-6--5--3--0----3--5--0--3----6--5--3--0----3--5--0--3-|
B|-6--5--3--0----3--5--0--3----6--5--3--0----3--5--0--3-| Play around with these chords
G|-6--5--3--0----3--5--0--3----6--5--3--0----3--5--0--3-|   and have fun above the
D|-6--5--3--0----3--5--0--3----6--5--3--0----3--5--0--3-|   twelfth fret too.
G|-6--5--3--0----3--5--0--3----6--5--3--0----3--5--0--3-|
D|-6--5--3--0----3--5--0--3----6--5--3--0----3--5--0--3-|

Here we are, past the stone
d|-0--0--0----0--0--0----0--0--0--0--|
B|-0--3--0----5--3--0----0--0--0--0--|
G|-0--0--0----0--0--0----2--2--0--3--|
D|-0--0--0----0--0--0----0--0--0--0--| Repeat a bunch of times
G|-0--0--0----0--0--0----0--0--0--0--|
D|-0--0--0----0--0--0----0--0--0--0--|

d|-------------12---------|		Slide from fret 9
B|-12----12--------12-----|
G|---12------12-----------|
D|------------------------| x3
G|-12--12--12--12--12--12-|
D|------------------------|

d|-------------5---------------------------------|
B|-5-----5---------5-------3-----3-----2---1---0-|
G|---5-------5---------------3-------3-----------|
D|-----------------------------------------------|
G|-5---5---5---5---5---5---3---3---3---2---1---0-|
D|-----------------------------------------------|

d|-------------12---------|		Slide from fret 9
B|-12----12--------12-----|
G|---12------12-----------|
D|------------------------| x3   on the last one, slide down to fret five
G|-12--12--12--12--12--12-| 		and strum an open G
D|------------------------|

d|-0h2-0-------------------0h2-0--------------|
B|---------0---3-------------------0---3---0--|
G|--------------------------------------------| 
D|--------------------------------------------|
G|-0---0---0---0---0---0---0---0---0---0---0--|
D|--------------------------------------------|

d|---------3-----------3-----------2-----------2------|
B|-------------0-----------0-----------1-----------1--|
G|----------------------------------------------------| The above and this one x4
D|----------------------------------------------------|
G|-0---0---0---0---0---0---0---0---0---0---0---0---0--|
D|----------------------------------------------------|

d|-------------5-----------------------3--------------------12-|
B|-5---------------5-------3---------------3----------------12-|
G|-----5-----------------------3---------------3/24---------12-|
D|----------------------------------------------------------12-|
G|-5---5---5---5---5---5---3---3---3---3---3---3/24---------12-|
D|----------------------------------------------------------12-|





Comments


Popular The Dodos tabs & chords
Undeclared Chords
Winter Chords
Companions 1 Tabs
Fools 2 Tabs
Horny Hippies Tabs
Longform Intro Tabs
Men 1 Tabs
Paint The Rust Tabs
Walking Tabs
Undeclared Ukulele


Song lyrics



↑ Back to top | Tablatures and chords are parodies/interpretations of the original songs. You may use it for private study, scholarship, research or language learning purposes only
© 2014 AZChords.com Contact us | Privacy policy | DMCA | Add/correct tabs | Request tabs | Top 50 tabs