>
 >
Men

Men Guitar Tabs

The Dodos - Men chords, tabs, tablatures, lyrics

Guitar lessons | Add/correct | Request | Top 50 tabs Artists:  A B C D E F G H I J K L M N O P Q R S T U V W X Y Z 0-9

Men Guitar Tabs – The Dodos

CD, Sheet music, Poster

Do you like Men? Share with your friends now
TabsTabs v2
This song is in 3/4 time signature and its strummed quickly.
Drop D tuning
Have fun and Thanks,

Jake Miller

e|-0-0-0-0-0-0-|
B|-0-0-0-0-0-0-|
G|-4-4-4-4-4-4-|
D|-5-5-5-5-5-5-| x2
A|-x-x-x-x-x-x-|
D|-5-5-5-5-5-5-|
   D U D U D U

e|-0-0-0-0-0-0-|	This is a
B|-3-3-3-3-3-3-|
G|-4-4-4-4-4-4-|
D|-5-5-5-5-5-5-| x2
A|-x-x-x-x-x-x-|
D|-5-5-5-5-5-5-|
   D U D U D U

Sign used to wear. This is a
e|-0--0--0--0--0--0--0--0--0--0--0--0--|
B|-12-12-12-12-12-12-12-12-12-12-12-12-|
G|-0--0--0--0--0--0--11-11-11-11-11-11-|
D|-9--9--9--9--9--9--9--9--9--9--9--9--|
A|-10-10-10-10-10-10-10-10-10-10-10-10-|
D|-0--0--0--0--0--0--0--0--0--0--0--0--|
   D  U  D  U  D  U  D  U  D  U  D  U

Lie, it says I care. I found a 
e|-0--0--0--0--0--0--0--0--0--0--0--0--|
B|-12-12-12-12-12-12-12-12-12-12-12-12-|
G|-9--9--9--9--9--9--9--9--9--9--9--9--|
D|-9--9--9--9--9--9--9--9--9--9--9--9--|
A|-10-10-10-10-10-10-10-10-10-10-10-10-|
D|-0--0--0--0--0--0--0--0--0--0--0--0--|
   D  U  D  U  D  U  D  U  D  U  D  U

Reason I found a tare last
e|-0--0--0--0--0--0--0--0--0--0--0--0--|
B|-0--0--0--0--0--0--0--0--0--0--0--0--|
G|-11-11-11-11-11-11-11-11-11-11-11-11-|
D|-9--9--9--9--9--9--0--0--0--0--0--0--|
A|-0--0--0--0--0--0--9--9--9--9--9--9--|
D|-10-10-10-10-10-10-0--0--0--0--0--0--|
   D  U  D  U  D  U  D  U  D  U  D  U

Year.                         I am a 
e|-0--0--0--0--0--0--0--0--0--0--0--0--|
B|-0--0--0--0--0--0--0--0--0--0--0--0--|
G|-0--0--0--0--0--0--0--0--0--0--0--0--|
D|-9--9--9--9--9--9--9--9--9--9--9--0--|
A|-10-10-10-10-10-10-10-10-10-10-10-10-|
D|-9--9--9--9--9--9--9--9--9--9--9--9--|
   D  U  D  U  D  U  D  U  D  U  D  U

Boy, you want a man. I am in-
e|-0--0--0--0--0--0--0--0--0--0--0--0--|
B|-12-12-12-12-12-12-12-12-12-12-12-12-|
G|-0--0--0--0--0--0--11-11-11-11-11-11-|
D|-9--9--9--9--9--9--9--9--9--9--9--9--|
A|-10-10-10-10-10-10-10-10-10-10-10-10-|
D|-0--0--0--0--0--0--0--0--0--0--0--0--|
   D  U  D  U  D  U  D  U  D  U  D  U

Different, you want a plan. Im getting
e|-0--0--0--0--0--0--0--0--0--0--0--0--|
B|-12-12-12-12-12-12-12-12-12-12-12-12-|
G|-9--9--9--9--9--9--9--9--9--9--9--9--|
D|-9--9--9--9--9--9--9--9--9--9--9--9--|
A|-10-10-10-10-10-10-10-10-10-10-10-10-|
D|-0--0--0--0--0--0--0--0--0--0--0--0--|
   D  U  D  U  D  U  D  U  D  U  D  U

Out, Im getting there this
e|-0--0--0--0--0--0--0--0--0--0--0--0--|
B|-0--0--0--0--0--0--0--0--0--0--0--0--|
G|-11-11-11-11-11-11-11-11-11-11-11-11-|
D|-9--9--9--9--9--9--0--0--0--0--0--0--|
A|-0--0--0--0--0--0--9--9--9--9--9--9--|
D|-10-10-10-10-10-10-0--0--0--0--0--0--|
   D  U  D  U  D  U  D  U  D  U  D  U

Year.                       We are in
e|-0--0--0--0--0--0--0--0--0--0--0--0--|
B|-0--0--0--0--0--0--0--0--0--0--0--0--|
G|-0--0--0--0--0--0--0--0--0--0--0--0--|
D|-9--9--9--9--9--9--9--9--9--9--9--0--|
A|-10-10-10-10-10-10-10-10-10-10-10-10-|
D|-9--9--9--9--9--9--9--9--9--9--9--9--|
   D  U  D  U  D  U  D  U  D  U  D  U

Love, we are at war. I feed my-
e|-0--0--0--0--0--0--0--0--0--0--0--0-|
B|-0--0--0--0--0--0--0--0--0--0--0--0-|
G|-0--0--0--0--0--0--0--0--0--0--0--0-|
D|-2--2--2--2--2--2--2--2--2--2--2--2-| x2
A|-3--3--3--3--3--3--3--3--3--3--3--3-|
D|-2--2--2--2--2--2--0--0--2--2--0--0-|
   D  U  D  U  D  U  D  U  D  U  D  U

Self, you feed the poor. I write the
e|-0--0--0--0--0--0--0--0--0--0--0--0-|
B|-0--0--0--0--0--0--0--0--0--0--0--0-|
G|-0--0--0--0--0--0--0--0--0--0--0--0-|
D|-0--0--0--0--0--0--3--3--0--0--3--3-| x2
A|-2--2--2--2--2--2--2--2--2--2--2--2-|
D|-0--0--0--0--0--0--0--0--0--0--0--0-|
   D  U  D  U  D  U  D  U  D  U  D  U

Fiction, you write the lore. These are a-
e|-0--0--0--0--0--0--0--0--0--0--0--0-|
B|-0--0--0--0--0--0--0--0--0--0--0--0-|
G|-0--0--0--0--0--0--0--0--0--0--0--0-|
D|-2--2--2--2--2--2--2--2--2--2--2--2-| x2
A|-3--3--3--3--3--3--3--3--3--3--3--3-|
D|-2--2--2--2--2--2--0--0--2--2--0--0-|
   D  U  D  U  D  U  D  U  D  U  D  U

ddictions Ive seen before and if I get
e|-0--0--0--0--0--0--0--0--0--0--0--0-|
B|-0--0--0--0--0--0--0--0--0--0--0--0-|
G|-0--0--0--0--0--0--0--0--0--0--0--0-|
D|-0--0--0--0--0--0--3--3--0--0--3--3-| x2
A|-2--2--2--2--2--2--2--2--2--2--2--2-|
D|-0--0--0--0--0--0--0--0--0--0--0--0-|
   D  U  D  U  D  U  D  U  D  U  D  U

Out, I wont be saved. You are my
e|-0--0--0--0--0--0--0--0--0--0--0--0-|
B|-0--0--0--0--0--0--0--0--0--0--0--0-|
G|-0--0--0--0--0--0--0--0--0--0--0--0-|
D|-2--2--2--2--2--2--2--2--2--2--2--2-| x2
A|-3--3--3--3--3--3--3--3--3--3--3--3-|
D|-2--2--2--2--2--2--0--0--2--2--0--0-|
   D  U  D  U  D  U  D  U  D  U  D  U

Keeper, I am your slave. Youre in my
e|-0--0--0--0--0--0--0--0--0--0--0--0-|
B|-0--0--0--0--0--0--0--0--0--0--0--0-|
G|-0--0--0--0--0--0--0--0--0--0--0--0-|
D|-0--0--0--0--0--0--3--3--0--0--3--3-| x2
A|-2--2--2--2--2--2--2--2--2--2--2--2-|
D|-0--0--0--0--0--0--0--0--0--0--0--0-|
   D  U  D  U  D  U  D  U  D  U  D  U

Thoughts, youre in my way. Keep all the
e|-0--0--0--0--0--0--0--0--0--0--0--0-|
B|-0--0--0--0--0--0--0--0--0--0--0--0-|
G|-0--0--0--0--0--0--0--0--0--0--0--0-|
D|-2--2--2--2--2--2--2--2--2--2--2--2-| x2
A|-3--3--3--3--3--3--3--3--3--3--3--3-|
D|-2--2--2--2--2--2--0--0--2--2--0--0-|
   D  U  D  U  D  U  D  U  D  U  D  U

Weakers, bury the brave.
e|-0--0--0--0--0--0--0--0--0--0--0--0-|
B|-0--0--0--0--0--0--0--0--0--0--0--0-|
G|-0--0--0--0--0--0--0--0--0--0--0--0-|
D|-0--0--0--0--0--0--3--3--0--0--3--3-| x2
A|-2--2--2--2--2--2--2--2--2--2--2--2-|
D|-0--0--0--0--0--0--0--0--0--0--0--0-|
   D  U  D  U  D  U  D  U  D  U  D  U

e|-x--x--x--x--x-|
B|-x--x--x--x--x-|
G|-4--4--4--4--x-|
D|-5--5--5--5--x-| x4
A|-3--3--3--3--x-|
D|-2--2--2--2--x-|
   D  U  D  U  D

e|-0--0--0--0--0-|
B|-0--0--0--0--3-|
G|-4--4--4--4--4-|
D|-5--5--5--5--5-| x3
A|-x--x--x--x--x-|
D|-5--5--5--5--5-|
   D  U  D  U  D	

e|-0--0-----0--0-|		 
B|-3--3-----3--3-|
G|-4--4-----4--4-|
D|-5--5-----5--5-| 
A|-x--x-----x--x-|
D|-5--5-----5--5-|
   D  D     D  D

e|-x--x--x--x--x-|
B|-x--x--x--x--x-|
G|-4--4--4--4--x-|
D|-5--5--5--5--x-| x4
A|-3--3--3--3--x-|
D|-2--2--2--2--x-|
   D  U  D  U  D

e|-0--0--0--0--0-|		 
B|-0--0--0--0--3-|
G|-4--4--4--4--4-|
D|-5--5--5--5--5-| x3
A|-x--x--x--x--x-|
D|-5--5--5--5--5-|
   D  U  D  U  D

e|-0--0-----0--0-|		 
B|-3--3-----3--3-|
G|-4--4-----4--4-|
D|-5--5-----5--5-| 
A|-x--x-----x--x-|
D|-5--5-----5--5-|
   D  D     D  D

Repeat all of the above.

e|-x--x--x--x--x-|
B|-x--x--x--x--x-|
G|-4--4--4--4--x-|
D|-5--5--5--5--x-| x4
A|-3--3--3--3--x-|
D|-2--2--2--2--x-|
   D  U  D  U  D

e|-0--0--0--0--0-|
B|-0--0--0--0--3-|
G|-4--4--4--4--4-|
D|-5--5--5--5--5-| x3
A|-x--x--x--x--x-|
D|-5--5--5--5--5-|
   D  U  D  U  D	

e|-0--0-----0--0-|		 
B|-3--3-----3--3-|
G|-4--4-----4--4-|
D|-5--5-----5--5-| 
A|-x--x-----x--x-|
D|-5--5-----5--5-|
   D  D     D  D

e|-x--x--x--x--x-|
B|-x--x--x--x--x-|
G|-4--4--4--4--x-|
D|-5--5--5--5--x-| x4
A|-3--3--3--3--x-|
D|-2--2--2--2--x-|
   D  U  D  U  D

e|-0--0--0--0--0-|		 
B|-0--0--0--0--3-|
G|-4--4--4--4--4-|
D|-5--5--5--5--5-| x3
A|-x--x--x--x--x-|
D|-5--5--5--5--5-|
   D  U  D  U  D

e|-0--0-----0--0-|		 
B|-3--3-----3--3-|
G|-4--4-----4--4-|
D|-5--5-----5--5-| 
A|-x--x-----x--x-|
D|-5--5-----5--5-|
   D  D     D  D

e|-0--0--0--0--0--0--0--0--0--0--0--0-|
B|-0--0--0--0--0--0--0--0--0--0--0--0-|
G|-0--0--0--0--0--0--4--4--4--4--4--4-|
D|-5--5--5--5--5--5--5--5--5--5--5--5-|
A|-3--3--3--3--3--3--3--3--3--3--3--3-|
D|-0--0--0--0--0--0--0--0--0--0--0--0-|
   D  U  D  U  D  U  D  U  D  U  D  U

e|-0--0--0--0--0--0--0--0--0--0--0--0-|
B|-0--0--0--0--0--0--0--0--0--0--0--0-|
G|-2--2--2--2--2--2--4--4--4--4--4--4-|
D|-5--5--5--5--5--5--5--5--5--5--5--5-|
A|-3--3--3--3--3--3--3--3--3--3--3--3-|
D|-0--0--0--0--0--0--0--0--0--0--0--0-|
   D  U  D  U  D  U  D  U  D  U  D  U

e|-0--0--0--0--0--0--0--0--0--0--0--0-|
B|-0--0--0--0--0--0--0--0--0--0--0--0-|
G|-0--0--0--0--0--0--4--4--4--4--4--4-|
D|-5--5--5--5--5--5--5--5--5--5--5--5-|
A|-x--x--x--x--x--x--x--x--x--x--x--x-|
D|-5--5--5--5--5--5--5--5--5--5--5--5-|
   D  U  D  U  D  U  D  U  D  U  D  U

e|-0--0--0--0--0--0--0--0--0--0-|
B|-0--0--0--0--0--0--0--0--0--0-|
G|-2--2--2--2--2--2--2--4--2--0-|
D|-5--5--5--5--5--5--5--5--5--5-|
A|-x--x--x--x--x--x--x--x--x--x-|
D|-5--5--5--5--5--5--5--5--5--5-|
   D  U  D  U  D  U  D  D  D  D

e|-0--0--0--0--0--0--0--0--0--0--0--0-|
B|-0--0--0--0--0--0--0--0--0--0--0--0-|
G|-0--0--0--0--0--0--4--4--4--4--4--4-|
D|-5--5--5--5--5--5--5--5--5--5--5--5-|
A|-3--3--3--3--3--3--3--3--3--3--3--3-|
D|-0--0--0--0--0--0--0--0--0--0--0--0-|
   D  U  D  U  D  U  D  U  D  U  D  U

e|-0--0--0--0--0--0--0--0--0--0--0--0-|
B|-0--0--0--0--0--0--0--0--0--0--0--0-|
G|-2--2--2--2--2--2--4--4--4--4--4--4-|
D|-5--5--5--5--5--5--5--5--5--5--5--5-|
A|-3--3--3--3--3--3--3--3--3--3--3--3-|
D|-0--0--0--0--0--0--0--0--0--0--0--0-|
   D  U  D  U  D  U  D  U  D  U  D  U

e|-0--0--0--0--0--0--0--0--0--0--0--0-|
B|-0--0--0--0--0--0--0--0--0--0--0--0-|
G|-0--0--0--0--0--0--4--4--4--4--4--4-|
D|-5--5--5--5--5--5--5--5--5--5--5--5-|
A|-x--x--x--x--x--x--x--x--x--x--x--x-|
D|-5--5--5--5--5--5--5--5--5--5--5--5-|
   D  U  D  U  D  U  D  U  D  U  D  U

e|-0--0--0--0--0--0--0--0--0--0-|
B|-0--0--0--0--0--0--0--0--0--0-|
G|-2--2--2--2--2--2--2--4--2--0-|
D|-5--5--5--5--5--5--5--5--5--5-|
A|-x--x--x--x--x--x--x--x--x--x-|
D|-5--5--5--5--5--5--5--5--5--5-|
   D  U  D  U  D  U  D  D  D  D

Repeat above multiple times

e|-0--0--0--0--0-|     |-0-|
B|-0--0--0--0--3-|     |-0-|
G|-4--4--4--4--4-|     |-4-|
D|-5--5--5--5--5-| x3  |-5-| let ring
A|-x--x--x--x--x-|     |-x-|
D|-5--5--5--5--5-|     |-5-|
   D  U  D  U  D





Comments


Popular The Dodos tabs & chords
Ashley Chords
Fables Chords
Black Night Tabs
Black Night 1 Tabs
Bob Tabs
Companions Tabs
Eyelids Tabs
Lily Tabs
Paint The Rust Full Tabs
Park Song Tabs


Song lyrics



↑ Back to top | Tablatures and chords are parodies/interpretations of the original songs. You may use it for private study, scholarship, research or language learning purposes only
© 2014 AZChords.com Contact us | Privacy policy | DMCA | Add/correct tabs | Request tabs | Top 50 tabs