» » »

Lily Tabs (ver.1)

Artists:  A B C D E F G H I J K L M N O P Q R S T U V W X Y Z # 

Lily Tabs (ver.1)

The Dodos
Rating:
5/5 (1 vote)

Hard to play? Try these video lessons and learn fast.
                hello this my first tab ever and i hope who ever you are that likes the dodos likes how 
i play it. Im glad you like the dodos

Lily- The Dodos


e|---0-----0--0------0--0-------0---0-----0--|
b|------3---------3---------3-----------3----|
g|---4---4----4----4----4-----4-----4----4---|
d|-5---5----5---5-----5---5-------5---5------|
a|-------------------------------------------|
E|-------------------------------------------|     * use your pinky to hit the 5th fret


e|---0-----0--0------0--0-------0---0-----0---|
b|------3---------3---------3-----------3-----|
g|---5---5----5----5----5-----5-----5----5----|
d|-5---5----5---5-----5---5-------5---5-------|
a|--------------------------------------------|
E|--------------------------------------------|


then for the chorus thing where he sings "its time against our back" you do this twice


e|---0-----0--0------0--0-------0---0-----0---|
b|------0---------0---------0-----------0-----|
g|---1---1----1----1----4-----4-----4----4----|
d|-2---2----2---2-----5---5-------5---5-------|
a|--------------------------------------------|
E|--------------------------------------------|


e|---0-----0--0------0--0-------0---0-----0---|
b|------3---------3---------3-----------3-----|
g|---4---4----4----4----4-----4-----4----4----|
d|-5---5----5---5-----5---5-------5---5-------|
a|--------------------------------------------|
E|--------------------------------------------|

then back to the main verse

e|---0-----0--0------0--0-------0---0-----0---|
b|------3---------3---------3-----------3-----|
g|---4---4----4----4----4-----4-----4----4----|
d|-5---5----5---5-----5---5-------5---5-------|
a|--------------------------------------------|
E|--------------------------------------------|


e|---0-----0--0------0--0-------0---0-----0---|
b|------3---------3---------3-----------3-----|
g|---5---5----5----5----5-----5-----5----5----|
d|-5---5----5---5-----5---5-------5---5-------|
a|--------------------------------------------|
E|--------------------------------------------|

end with a slowish strum on this

e|-0--|
b|-3--|
g|-4--|
d|-5--|
a|----|
E|----|
thats all of it hope you liked it
            
Hard to play? Try these video lessons and learn fast. | Correct




comments powered by Disqus
↑ Back to top | Tablatures and chords are parodies/interpretations of the original songs. You may use it for private study, scholarship, research or language learning purposes only