>
 >
God

God Guitar Tabs

The Dodos - God chords, tabs, tablatures, lyrics

Guitar lessons | Add/correct | Request | Top 50 tabs Artists:  A B C D E F G H I J K L M N O P Q R S T U V W X Y Z 0-9

God Guitar Tabs – The Dodos

CD, Sheet music, Poster

Do you like God? Share with your friends now
Tabs
I'm sure it's not 100% but I think it is close.
use your thumb for the D and G strings.
Thanks

d|---------------------------------|
B|---------------------------------|
G|---------------------------------|
D|-4---4---4---4---4---4---4---4---|
G|---------------------------------| x4
D|---0---0---0---0---0---0---0---0-|

   No one to hold, no place to lie. I know were all alone and still     
d|-------------------------------------------------------------------|
B|-------------------------------------------------------------------|
G|-----2-------4-------2-------0-------------------------------------|
D|---4---4---4---4---4---4---4---4---0---0---0---0---0---0---0---0---|
G|-------------------------------------4-------2-------0-------------| x3
D|-0---0---0---0---0---0---0---0---0-------0-------0-------0---4-----|

  We need you now, we need to heal. Oh no, oh no, oh God whered you go?
d|-------------------------------------------------------------------|
B|-------------------------------------------------------------------|
G|-----2-------4-------2-------0-------------------------------------|
D|---4---4---4---4---4---4---4---4---0---0---0---0---0---0-----------|
G|-------------------------------------4-------2---------------------| 
D|-0---0---0---0---0---0---0---0---0-------0-------0---2---4-2-------|

d|-----------------------------------|
B|-----------------------------------|
G|-----------------------------------|
D|-----4---4---4---4---4---4---4---4-|
G|-----------------------------------| x4
D|---0---0---0---0---4---4---4---4---|

d|----------------------------------------------------------------------|
B|-------0---------------3----------------------------------------------|
G|---------------------------------------3-----3---3-----2-----2--------|
D|-----4---4---4---4---4---4---4---4---4---4-----------4---4-------4----|
G|----------------------------------------------------------------------| x4
D|---0---0---0---0---0---0---0---0---0---0---0---0---0---0---0---0------|

d|-------------------------------------------|
B|-------------------------------------------|
G|-------2-----2---------2-----2---------2---|
D|-----4---4-------4---4---4-------4---4-----|
G|-------------------------------------------| 
D|---0---0---0---0---0---0---0---0---0---0---|

You give us love, we have to hide. I know I know its shades of gray
d|-------------------------------------------------------------------|
B|-------------------------------------------------------------------|
G|-----2-------4-------2-------0-------------------------------------|
D|---4---4---4---4---4---4---4---4---0---0---0---0---0---0---0---0---|
G|-------------------------------------4-------2-------0-------------| x3
D|-----0---0---0---0---0---0---0---0-------0-------0-------0---4-----|

You wait until we see the light Oh no Oh no oh God whered you go?
d|-------------------------------------------------------------------|
B|-------------------------------------------------------------------|
G|-----2-------4-------2-------0-------------------------------------|
D|---4---4---4---4---4---4---4---4---0---0---0---0---0---0-----------|
G|-------------------------------------4-------2---------------------| 
D|-0---0---0---0---0---0---0---0---0-------0-------0---2---4-2-------|

Oh God          GOD   GOD
d|-----------------------------------|
B|-----------------------------------|
G|-----------------------------------|
D|-----4---4---4---4---4---4---4---4-|
G|-----------------------------------| x4
D|---0---0---0---0---4---4---4---4---|

d|----------------------------------------------------------------------|
B|-------0---------------3----------------------------------------------|
G|---------------------------------------3-----3---3-----2-----2--------|
D|-----4---4---4---4---4---4---4---4---4---4-----------4---4-------4----|
G|----------------------------------------------------------------------| x3
D|---0---0---0---0---0---0---0---0---0---0---0---0---0---0---0---0------|

d|-------------------------------------------------------|
B|-------0---------------3-------------------------------|
G|---------------------------------------3-----3---3-----|
D|-----4---4---4---4---4---4---4---4---4---4-----------4-|
G|-------------------------------------------------------| 
D|---0---0---0---0---0---0---0---0---0---0---0---0---0---|

d|-----------------------------------|
B|-----------------------------------|
G|---2---2-----------2---2-----------|
D|-----------0---0-----------0---0---|
G|---2---2-----------2---2-----------| x2
D|-----------0---0-----------0---0---|

And tell us how to feel inside
d|----------0--------------0---------------0---------------0------------|
B|----------------------------------------------------------------------|
G|---11--------11----9---------9-----4---------4-----2---------2--------|
D|---------------0---------------0---------------0---------------0------|
G|-------11------11------9-------9-------4-------4-------2-------2------| 
D|---0-------0-------0-------0-------0-------0-------0-------0----------|

No Lies no lies no lies
d|----------0--------------0---------------0-------0--------------------|
B|---------------------------------------------3-------3-------3--------|
G|---4---------4-----9---------9-----2---------------------2------------|
D|---------------0---------------0--------------------------------------|
G|-------4-------4-------9-------9-------2-------2-------2-------2------| 
D|---0-------0-------0-------0-------0-------0-------0-------0----------|

And let me look upon that sign
d|----------0--------------0---------------0---------------0------------|
B|----------------------------------------------------------------------|
G|---11--------11----9---------9-----4---------4-----2---------2--------|
D|---------------0---------------0---------------0---------------0------|
G|-------11------11------9-------9-------4-------4-------2-------2------| 
D|---0-------0-------0-------0-------0-------0-------0-------0----------|

With eyes with eyes with eyes
d|----------0--------------0---------------0-------0--------------------|
B|---------------------------------------------3-------3-------3--------|
G|---4---------4-----9---------9-----2---------------------2------------|
D|---------------0---------------0--------------------------------------|
G|-------4-------4-------9-------9-------2-------2-------2-------2------| 
D|---0-------0-------0-------0-------0-------0-------0-------0----------|

And tell me how you wear that crown
d|-----------------------------------------0-------0--------------------|
B|----------0--------------0-------------------3-------3-------3--------|
G|---5---------5-----4---------4-----2---------------------2------------|
D|---------------0---------------0--------------------------------------|
G|-------5-------5-------4-------4-------2-------2-------2-------2------| 
D|---0-------0-------0-------0-------0-------0-------0-------0----------|

Of right of right of right
d|----------0--------------0---------------0-------0--------------------|
B|---------------------------------------------3-------3-------3--------|
G|---4---------4-----2---------2-----2---------------------2------------|
D|---------------0---------------0--------------------------------------|
G|-------4-------4-------2-------2-------2-------2-------2-------2------| 
D|---0-------0-------0-------0-------0-------0-------0-------0----------|

You lift us up to let us down 
d|----------0--------------0---------------0---------------0------------|
B|----------------------------------------------------------------------|
G|---11--------11----9---------9-----4---------4-----2---------2--------|
D|---------------0---------------0---------------0---------------0------|
G|-------11------11------9-------9-------4-------4-------2-------2------| 
D|---0-------0-------0-------0-------0-------0-------0-------0----------|

We die we die we die
d|----------0--------------0---------------0-------0----------------0---|
B|---------------------------------------------3-------3-------3----3---|
G|---4---------4-----9---------9-----2---------------------2--------2---|
D|---------------0---------------0----------------------------------0---|
G|-------4-------4-------9-------9-------2-------2-------2-------2--2---| 
D|---0-------0-------0-------0-------0-------0-------0-------0------0---|

You answer to the wrong and wide I know I know their faith you fill     
d|-------------------------------------------------------------------|
B|-------------------------------------------------------------------|
G|-----2-------4-------2-------0-------------------------------------|
D|---4---4---4---4---4---4---4---4---0---0---0---0---0---0---0---0---|
G|-------------------------------------4-------2-------0-------------| x3
D|-----0---0---0---0---0---0---0---0-------0-------0-------0---4-----|

  I wonder if youll wait until oh no oh no this place will explode
d|-------------------------------------------------------------------|
B|-------------------------------------------------------------------|
G|-----2-------4-------2-------0-------------------------------------|
D|---4---4---4---4---4---4---4---4---0---0---0---0---0---0-----------|
G|-------------------------------------4-------2---------------------| 
D|-0---0---0---0---0---0---0---0---0-------0-------0---2---4-2-------|

d|-----------------------------------|
B|-----------------------------------|
G|-----------------------------------|
D|-----4---4---4---4---4---4---4---4-|
G|-----------------------------------| x4
D|---0---0---0---0---4---4---4---4---|

d|----------------------------------------------------------------------|
B|-------0---------------3----------------------------------------------|
G|---------------------------------------3-----3---3-----2-----2--------|
D|-----4---4---4---4---4---4---4---4---4---4-----------4---4-------4----|
G|----------------------------------------------------------------------| x4
D|---0---0---0---0---0---0---0---0---0---0---0---0---0---0---0---0------|

d|-------------------------------------------|
B|-------------------------------------------|
G|-------2-----2---------2-----2---------2---|
D|-----4---4-------4---4---4-------4---4-----|
G|-------------------------------------------| 
D|---0---0---0---0---0---0---0---0---0---0---|

You live above this great big sky I hear its nice its always spring
d|-------------------------------------------------------------------|
B|-------------------------------------------------------------------|
G|-----2-------4-------2-------0-------------------------------------|
D|---4---4---4---4---4---4---4---4---0---0---0---0---0---0---0---0---|
G|-------------------------------------4-------2-------0-------------| x3
D|-----0---0---0---0---0---0---0---0-------0-------0-------0---4-----|

We did the things you said alright. Oh no Oh no oh God whered you go?
d|-------------------------------------------------------------------|
B|-------------------------------------------------------------------|
G|-----2-------4-------2-------0-------------------------------------|
D|---4---4---4---4---4---4---4---4---0---0---0---0---0---0-----------|
G|-------------------------------------4-------2---------------------| 
D|-0---0---0---0---0---0---0---0---0-------0-------0---2---4-2-------|

Oh God          GOD   GOD
d|-----------------------------------|
B|-----------------------------------|
G|-----------------------------------|
D|-----4---4---4---4---4---4---4---4-|
G|-----------------------------------| x4
D|---0---0---0---0---4---4---4---4---|

d|----------------------------------------------------------------------|
B|-------0---------------3----------------------------------------------|
G|---------------------------------------3-----3---3-----2-----2--------|
D|-----4---4---4---4---4---4---4---4---4---4-----------4---4-------4----|
G|----------------------------------------------------------------------| x3
D|---0---0---0---0---0---0---0---0---0---0---0---0---0---0---0---0------|

d|-------------------------------------------------------|
B|-------0---------------3-------------------------------|
G|---------------------------------------3-----3---3-----|
D|-----4---4---4---4---4---4---4---4---4---4-----------4-|
G|-------------------------------------------------------| 
D|---0---0---0---0---0---0---0---0---0---0---0---0---0---|

d|-----------------------------------|
B|-----------------------------------|
G|---2---2-----------2---2-----------|
D|-----------0---0-----------0---0---|
G|---2---2-----------2---2-----------| x2
D|-----------0---0-----------0---0---|

And tell us how to feel inside
d|----------0--------------0---------------0---------------0------------|
B|----------------------------------------------------------------------|
G|---11--------11----9---------9-----4---------4-----2---------2--------|
D|---------------0---------------0---------------0---------------0------|
G|-------11------11------9-------9-------4-------4-------2-------2------| 
D|---0-------0-------0-------0-------0-------0-------0-------0----------|

No Lies no lies no lies
d|----------0--------------0---------------0-------0--------------------|
B|---------------------------------------------3-------3-------3--------|
G|---4---------4-----9---------9-----2---------------------2------------|
D|---------------0---------------0--------------------------------------|
G|-------4-------4-------9-------9-------2-------2-------2-------2------| 
D|---0-------0-------0-------0-------0-------0-------0-------0----------|

And let me look upon that sign
d|----------0--------------0---------------0---------------0------------|
B|----------------------------------------------------------------------|
G|---11--------11----9---------9-----4---------4-----2---------2--------|
D|---------------0---------------0---------------0---------------0------|
G|-------11------11------9-------9-------4-------4-------2-------2------| 
D|---0-------0-------0-------0-------0-------0-------0-------0----------|

With eyes with eyes with eyes
d|----------0--------------0---------------0-------0--------------------|
B|---------------------------------------------3-------3-------3--------|
G|---4---------4-----9---------9-----2---------------------2------------|
D|---------------0---------------0--------------------------------------|
G|-------4-------4-------9-------9-------2-------2-------2-------2------| 
D|---0-------0-------0-------0-------0-------0-------0-------0----------|

And tell me how you wear that crown
d|-----------------------------------------0-------0--------------------|
B|----------0--------------0-------------------3-------3-------3--------|
G|---5---------5-----4---------4-----2---------------------2------------|
D|---------------0---------------0--------------------------------------|
G|-------5-------5-------4-------4-------2-------2-------2-------2------| 
D|---0-------0-------0-------0-------0-------0-------0-------0----------|

Of right of right of right
d|----------0--------------0---------------0-------0--------------------|
B|---------------------------------------------3-------3-------3--------|
G|---4---------4-----2---------2-----2---------------------2------------|
D|---------------0---------------0--------------------------------------|
G|-------4-------4-------2-------2-------2-------2-------2-------2------| 
D|---0-------0-------0-------0-------0-------0-------0-------0----------|

You lift us up to let us down 
d|----------0--------------0---------------0---------------0------------|
B|----------------------------------------------------------------------|
G|---11--------11----9---------9-----4---------4-----2---------2--------|
D|---------------0---------------0---------------0---------------0------|
G|-------11------11------9-------9-------4-------4-------2-------2------| 
D|---0-------0-------0-------0-------0-------0-------0-------0----------|

We die we die we die
d|----------0--------------0---------------0-------0-------------------|
B|---------------------------------------------3-------3-------3-------|
G|---4---------4-----9---------9-----2---------------------2-----------|
D|---------------0---------------0-------------------------------------|
G|-------4-------4-------9-------9-------2-------2-------2-------2-----| 
D|---0-------0-------0-------0-------0-------0-------0-------0---------|

We die we die we
d|----------0--------------0---------|
B|-----------------------------------|
G|---4---------4-----9---------9-----|
D|---------------0---------------0---|
G|-------4-------4-------9-------9---| 
D|---0-------0-------0-------0-------|

die
d|-----------0---0-----------0---0---|
B|-----------3---3-----------3---3---|
G|-----------2---2-----------2---2---|
D|-----------0---0-----------0---0---|
G|-----------2---2-----------2---2---| x4
D|---0---0---0---0---0---0---0---0---|

d|---0---0---0---0---0---0---0---0---0---0---0---0---0---0---0---0------|
B|---0---0---0---0---0---0---0---0---3---3---3---3---3---3---3---3------|
G|---5---5---5---5---4---4---4---4---2---2---2---2---2---2---2---2------|
D|---0---0---0---0---0---0---0---0---0---0---0---0---0---0---0---0------|
G|---5---5---5---5---4---4---4---4---2---2---2---2---2---2---2---2------| 
D|---0---0---0---0---0---0---0---0---0---0---0---0---0---0---0---0------|

d|---0---0---0---0---0---0---0---0---0---0---0---0---0---0---0---0------|
B|---0---0---0---0---0---0---0---0---0---0---0---0---0---0---0---0------|
G|---5---5---5---5---4---4---4---4---11--11--11--11--11--11--11--11-----|
D|---0---0---0---0---0---0---0---0---0---0---0---0---0---0---0---0------|
G|---5---5---5---5---4---4---4---4---11--11--11--11--11--11--11--11-----| 
D|---0---0---0---0---0---0---0---0---0---0---0---0---0---0---0---0------|

Repeat as necessary 

d|---0---0---0---0---0---0---0---0---0----0----0----0----0----0----------|
B|---0---0---0---0---0---0---0---0---0----0----0----0----0----0----------|
G|---5---5---5---5---4---4---4---4---11---11---11---11---11---11---------|
D|---0---0---0---0---0---0---0---0---0----0----0----0----0----0----------|
G|---5---5---5---5---4---4---4---4---11---11---11---11---11---11---------| 
D|---0---0---0---0---0---0---0---0---0----0----0----0----0----0----------|

d|-------------------------------------------------------------------|
B|-------------------------------------------------------------------|
G|-----2-------4-------2-------0-------------------------------------|
D|---4---4---4---4---4---4---4---4---0---0---0---0---0---0---0---0---|
G|-------------------------------------4-------2-------0-------------| 
D|-----0---0---0---0---0---0---0---0-------0-------0-------0---4-----|

d|-------------------------------------------------------------------|
B|-------------------------------------------------------------------|
G|-----2-------4-------2-------0-------------------------------------|
D|---4---4---4---4---4---4---4---4---0---0---0---0---0---0-----------|
G|-------------------------------------4-------2---------------------| 
D|-0---0---0---0---0---0---0---0---0-------0-------0---2---4-2-0-----|





Comments


Popular The Dodos tabs & chords
Fables 1 Chords
Undeclared Chords
Chickens Tabs
Companions 1 Tabs
Park Song 1 Tabs
Trades And Tariffs Tabs
Undeclared Tabs
Walking 1 Tabs
Undeclared Ukulele
Winter Ukulele


Song lyrics



↑ Back to top | Tablatures and chords are parodies/interpretations of the original songs. You may use it for private study, scholarship, research or language learning purposes only
© 2014 AZChords.com Contact us | Privacy policy | DMCA | Add/correct tabs | Request tabs | Top 50 tabs