» » »

The Dodos, Fables Tabs (ver.1)

Artists:  A B C D E F G H I J K L M N O P Q R S T U V W X Y Z # 

Fables Tabs (ver.1)

The Dodos Tabs
 Rating:
3.6/5 (7 votes)
Fables lessons Tabs too difficult? Try these video lessons and learn fast
1
                The Dodos - Fables
This tab was created only by ear and watching video but I think it is the most
accurate. This is my first tab ever so feel free to leave some feedback!

Open G Tuning - D G D G B D

D - Down Stroke
U - Up Stroke

Intro/Main Riff:

   D   D U D U D  D  D U D U D

D|-----0-0-0-0----0--0-0-0-0----|
B|-----0-0-0-0----0--0-0-0-0----|
G|-0---0-0-0-0-0--0--0-0-0-0-0--|
D|-0---0-0-0-0-0--0--0-0-0-0-0--|
G|-0---0-0-0-0-0-----0-0-0-0-0--|
D|-0h2-2-2-2-2-2-----2-2-2-2-2--|  x4

Verse:
          "We spoke today to a jury..."

   D   D U D U D  D  D U D U D  D  D U D U D  D  D U D U D

D|-----0-0-0-0----0--0-0-0-0----0--0-0-0-0----0--0-0-0-0----|
B|-----0-0-0-0----0--0-0-0-0----0--0-0-0-0----0--0-0-0-0----|
G|-0---0-0-0-0-0--0--0-0-0-0-0--0--0-0-0-0-0--0--0-0-0-0-0--|
D|-0---0-0-0-0-0--0--0-0-0-0-0--0--0-0-0-0-0--0--0-0-0-0-0--|
G|-0---0-0-0-0-0-----0-0-0-0-0-----0-0-0-0-0-----0-0-0-0-0--|
D|-0h2-0-0-0-0-0-----4-4-4-4-4-----2-2-2-2-2-----2-2-2-2-2--|  x4

Bridge:
    "Remember when you were my accomplice..."

D|--0--------0------|
B|--0--------0------|
G|--0--------0------|
D|-12--X32---9--X32-|
G|--X--------X------|
D|-10--------9------|

Chorus:
     "I don't want to go in the fire.."

D|-----0-0-0-0----0--------------0--------0------0-----|
B|-----0-0-0-0----0--------------0--------0------0-----|
G|-0---0-0-0-0-0--0--(same ------0--------0------0-----|
D|-0---5-5-5-5-5--5---pattern)--12--------9------7-----|
G|-0---x-x-x-x-x-----------------x--------x------x-----|
D|-0h2-5-5-5-5-5----------------10--------9------7-----|  x3

Main Riff

Verse

Bridge

Chorus

Outro (mostly variations of the main riff)

Solo:

D|----------------------------------------------------------------------------|
B|---------------------------15----------15---13---15--------15---------15----|
G|----16--14--16--12--16--11----------------------------16---------14---------|
D|-0-0---0---0---0--0---0---0---0--12-12----12---12---12---12---12----12---12-|
G|----------------------------------------------------------------------------|
D|----------------------------------------------------------------------------|X2
            
Submit corrections

comments powered by Disqus
↑ Back to top | The Dodos Tabs for Fables. Lyrics for acoustic guitar and electric guitar. 1 Tablatures and chords are parodies/interpretations of the original songs. You may use it for private study, scholarship, research or language learning purposes only