» » »

The Dodos, Eyelids Tabs (ver.1)

Artists:  A B C D E F G H I J K L M N O P Q R S T U V W X Y Z # 

Eyelids Tabs (ver.1)

The Dodos Tabs
 Rating:
3.6/5 (5 votes)
Eyelids lessons Tabs too difficult? Try these video lessons and learn fast
                -----------------------------------------------------------------------------
-----------------------------------------------------------------------------



Tuning:  Open A (E A C# E A E) low to high

I did not tab the strum rhythms completely but you can guess them pretty easily by 
to the song.

May not be exact or correct at all (as I did this one by ear) but I wanted to put up 
as I couldnt find this tab anywhere.

[Intro/Verse](strum between)
e|---0------0------0--0--0--------0------0------0-0-0-----------------------|
B|---7------5------7--5--4--------0------0------0-0-0-----------------------|
G|---9-(x7)-7-(x7)-9--7--5-(x14)--4-(x7)-2-(x7)-4-2-0-(x14)-----------------|
D|---8------5------8--5--3--------0------0------0-0-3-----------------------|
A|---0------0------0--0--0--------0------0------0-0-0-----------------------|
E|---0------0------0--0--0--------0------0------0-0-0-----------------------|


Thats pretty much the whole song.  I posted the lyrics below in case you wanted to sing 
out

The best of these eyelids
Is where I keep
But I will not weep there 'til you arrive
With false compares
My heart is unprepared
For when I will see you when you arrive
I hope that you meet me when I arrive


| /  slide up
| \  slide down
| h  hammer-on
| p  pull-off
| ~  vibrato
| +  harmonic
| x  Mute note
===============================================================================
            
Submit corrections

comments powered by Disqus
↑ Back to top | The Dodos Tabs for Eyelids. Lyrics for acoustic guitar and electric guitar. Tablatures and chords are parodies/interpretations of the original songs. You may use it for private study, scholarship, research or language learning purposes only