>
 >
Elves

Elves Guitar Tabs

The Dodos - Elves chords, tabs, tablatures, lyrics

Guitar lessons | Add/correct | Request | Top 50 tabs Artists:  A B C D E F G H I J K L M N O P Q R S T U V W X Y Z 0-9

Elves Guitar Tabs – The Dodos

CD, Sheet music, Poster

Do you like Elves? Share with your friends now
Tabs
 
You have to pluck this really, really fast. Good luck.

   I cried for you, what a waist of time
e|----0----0--1----0--0----0---0------1----1--1----1--0----0-----0--|
B|----1-------0-------1-----1----1-------0-------1-------0--0--0----|
G|-------0-------0-------0---------0--0---0---2---2---4---4---4---4-|
D|----2---2---0---0---2---2---2---2-0---0---3---3---5---5---5---5---|
A|--3---3-------2---3---3---3---3-----------------------------------|   
E|----------3-------------------------------------------------------|

	Oh well
e|----1----1--1----1--3----3--3----3-|
B|-------1-------1-------3-------3---|
G|----2---2---2---2---4---4---4---4--|
D|--3---2---0-------5---5---5---5----|
A|--------------3--------------------|   x3
E|-----------------------------------|

  Oh well
e|----0----0----------0----0--------|
B|----1------1---1----1------1---1--|
G|-------0-----0---0-----0-----0---0|
D|----2---2---2---2---2---2---2---2-|
A|--3---3---3---3---3---3---3---3---|   
E|----------------------------------|

e|----------0---0---0-1-3---|
B|--1-0-1-3-------3---------|
G|--------------------------|
D|--------------------------|
A|--3-3-3-3-3---3-3-3-3-3---|   
E|--------------------------|

     I go out for a while it always ends up in a dial
e|----0----0--1----0--0----0---0------1----1--1----1--0----0-----0--|
B|----1-------0-------1-----1----1-------0-------1-------0--0--0----|
G|-------0-------0-------0---------0--0---0---2---2---4---4---4---4-|
D|----2---2---0---0---2---2---2---2-0---0---3---3---5---5---5---5---|
A|--3---3-------2---3---3---3---3-----------------------------------|   
E|----------3-------------------------------------------------------|

	Oh well
e|----1----1--1----1--3----3--3----3-|
B|-------1-------1-------3-------3---|
G|----2---2---2---2---4---4---4---4--|
D|--3---2---0-------5---5---5---5----|
A|--------------3--------------------|   x3
E|-----------------------------------|

   Oh well
e|----0----0----------0----0--------|
B|----1------1---1----1------1---1--|
G|-------0-----0---0-----0-----0---0|
D|----2---2---2---2---2---2---2---2-|
A|--3---3---3---3---3---3---3---3---|   
E|----------------------------------|

e|----------0---0---0-1-3---|
B|--1-0-1-3-------3---------|
G|--------------------------|
D|--------------------------|
A|--3-3-3-3-3---3-3-3-3-3---|   x4
E|--------------------------|

	And I walk                           until I
e|----------0---0---0-1-3-----------0---0---0-1-0--|
B|--1-0-1-3-------3---------1-0-1-3-------3--------|
G|-------------------------------------------------|
D|-------------------------------------------------|
A|--3-3-3-3-3---3-3-3-3-3---3-3-3-3-3---3-3-3-3-3--|   
E|-------------------------------------------------|

	Erase it
e|----------0---0---0-1-0-----------0---0---0-1-0--|
B|--1-0-1-3-------3---------1-0-1-3-------3--------|
G|-------------------------------------------------|
D|-------------------------------------------------|
A|-------------------------------------------------|   
E|--3-3-3-3-3---3-3-3-3-3---3-3-3-3-3---3-3-3-3-3--|

After the last repetition of the chorus strum the G7 chord once

Yeah I played into a part, just to make you mine
e|----0----0--1----0--0----0---0------1----1--1----1--0----0-----0--|
B|----1-------0-------1-----1----1-------0-------1-------0--0--0----|
G|-------0-------0-------0---------0--0---0---2---2---4---4---4---4-|
D|----2---2---0---0---2---2---2---2-0---0---3---3---5---5---5---5---|
A|--3---3-------2---3---3---3---3-----------------------------------|   
E|----------3-------------------------------------------------------|

	Oh well
e|----1----1--1----1--3----3--3----3-|
B|-------1-------1-------3-------3---|
G|----2---2---2---2---4---4---4---4--|
D|--3---2---0-------5---5---5---5----|
A|--------------3--------------------|   x3
E|-----------------------------------|

   Oh well
e|----0----0----------0----0--------|
B|----1------1---1----1------1---1--|
G|-------0-----0---0-----0-----0---0|
D|----2---2---2---2---2---2---2---2-|
A|--3---3---3---3---3---3---3---3---|   
E|----------------------------------|

e|----------0---0---0-1-3---|
B|--1-0-1-3-------3---------|
G|--------------------------|
D|--------------------------|
A|--3-3-3-3-3---3-3-3-3-3---|   x4
E|--------------------------|

	And I walk                           until I
e|----------0---0---0-1-3-----------0---0---0-1-0--|
B|--1-0-1-3-------3---------1-0-1-3-------3--------|
G|-------------------------------------------------|
D|-------------------------------------------------|
A|--3-3-3-3-3---3-3-3-3-3---3-3-3-3-3---3-3-3-3-3--|   
E|-------------------------------------------------|

	Erase it
e|----------0---0---0-1-0-----------0---0---0-1-0--|
B|--1-0-1-3-------3---------1-0-1-3-------3--------|
G|-------------------------------------------------|
D|-------------------------------------------------|
A|-------------------------------------------------|   
E|--3-3-3-3-3---3-3-3-3-3---3-3-3-3-3---3-3-3-3-3--|

For the ending, strum the C chord once

This is as close as i can get it.

Thanks,

Jake Miller





Comments


Popular The Dodos tabs & chords
Black Night Tabs
Fools Tabs
God Tabs
Longform Intro Tabs
Park Song Tabs
The Season Tabs
Walking Tabs
Walking 1 Tabs
Walking Intro 1 Tabs
Two Medicines Ukulele


Song lyrics



↑ Back to top | Tablatures and chords are parodies/interpretations of the original songs. You may use it for private study, scholarship, research or language learning purposes only
© 2014 AZChords.com Contact us | Privacy policy | DMCA | Add/correct tabs | Request tabs | Top 50 tabs