>
 >
Chickens

Chickens Guitar Tabs

The Dodos - Chickens chords, tabs, tablatures, lyrics

Guitar lessons | Add/correct | Request | Top 50 tabs Artists:  A B C D E F G H I J K L M N O P Q R S T U V W X Y Z 0-9

Chickens Guitar Tabs – The Dodos

CD, Sheet music, Poster

Do you like Chickens? Share with your friends now
Tabs
This is one of my favorites! you have to pluck super fast for this one! have fun

Jake Miller


e|---------------------------------------------------------------|
B|-0h2p0---------------------------------------------------------|
G|---1-----------------------------------------------------------|
D|-----2-------2-------2-------2-------2-------2-------2-------2-| x4
A|---------------------------------------------------------------|
E|-0-------0-------0-------0-------0-------0-------0-------0-----|

e|-----0-------0---3p0-------0---------0-------0---3p0-------0-----|
B|0----------0---0-------0h2p0---------------0---0-------0h2p0-----|
G|-----------------------------------------------------------------|
D|-----2-------2-------2-------0h2-----2-------2-------2-------0h2-| x2
A|-----------------------------------------------------------------|
E|-0-------0-------0-------0-------0-------0-------0-------0-------|

e|-----0---------0-----0---|
B|-----------0---------0---|
G|---------------------1---|
D|-----2-------2-------2---|
A|---------------------0---|
E|-0-------0-------0---0---|

e|-----0-------0---3p0-------0---------0-------0---3p0-------0-----|
B|-----------0---0-------0h2p0---------------0---0-------0h2p0-----|
G|-----------------------------------------------------------------|
D|-----2-------2-------2-------0h2-----2-------2-------2-------0h2-| x2
A|-----------------------------------------------------------------|
E|-0-------0-------0-------0-------0-------0-------0-------0-------|

And all my friends are leaving me
e|-----0-------0---3p0-------0---------0-------0---3p0-------0-----|
B|0----------0---0-------0h2p0---------------0---0-------0h2p0-----|
G|-----------------------------------------------------------------|
D|-----2-------2-------2-------0h2-----2-------2-------2-------0h2-|
A|-----------------------------------------------------------------|
E|-0-------0-------0-------0-------0-------0-------0-------0-------|

They dont see they dont see they dont see my plight
e|-----------------------------------------------------------------|
B|-2-----2---------2-----2---------2-----2---------2-----2---------|
G|---2---------------2---------------2---------------2-------------|
D|-----2-------2-------2-------2-------2-------2-------2-------0---|
A|-0-------0-------0-------0-------0-------0-------0-------0-------|
E|-----------------------------------------------------------------|

e|-----0-------0---3p0-------0---------0-------0---3p0-------0-----|
B|0----------0---0-------0h2p0---------------0---0-------0h2p0-----|
G|-----------------------------------------------------------------|
D|-----2-------2-------2-------0h2-----2-------2-------2-------0h2-| x2
A|-----------------------------------------------------------------|
E|-0-------0-------0-------0-------0-------0-------0-------0-------|

And oh my mom she yells at me
e|-----0-------0---3p0-------0---------0-------0---3p0-------0-----|
B|0----------0---0-------0h2p0---------------0---0-------0h2p0-----|
G|-----------------------------------------------------------------|
D|-----2-------2-------2-------0h2-----2-------2-------2-------0h2-|
A|-----------------------------------------------------------------|
E|-0-------0-------0-------0-------0-------0-------0-------0-------|

We dont talk we just fight doing that all day and all night with me
e|-----------------------------------------------------------------|
B|-2-----2---------2-----2---------2-----2---------2-----2---------|
G|---2---------------2---------------2---------------2-------------|
D|-----2-------2-------2-------2-------2-------2-------2-------0---|
A|-0-------0-------0-------0-------0-------0-------0-------0-------|
E|-----------------------------------------------------------------|

e|-----0-------0---3p0-------0---------0-------0---3p0-------0-----|
B|0----------0---0-------0h2p0---------------0---0-------0h2p0-----|
G|-----------------------------------------------------------------|
D|-----2-------2-------2-------0h2-----2-------2-------2-------0h2-| x2
A|-----------------------------------------------------------------|
E|-0-------0-------0-------0-------0-------0-------0-------0-------|

And all my girlfriends bother me
e|-----0-------0---3p0-------0---------0-------0---3p0-------0-----|
B|0----------0---0-------0h2p0---------------0---0-------0h2p0-----|
G|-----------------------------------------------------------------|
D|-----2-------2-------2-------0h2-----2-------2-------2-------0h2-|
A|-----------------------------------------------------------------|
E|-0-------0-------0-------0-------0-------0-------0-------0-------|

They dont like they dont like they dont like the things they see in me
e|-----------------------------------------------------------------|
B|-2-----2---------2-----2---------2-----2---------2-----2---------|
G|---2---------------2---------------2---------------2-------------|
D|-----2-------2-------2-------2-------2-------2-------2-------0---|
A|-0-------0-------0-------0-------0-------0-------0-------0-------|
E|-----------------------------------------------------------------|

e|-----0-------0---3p0-------0---------0-------0---3p0-------0-----|
B|0----------0---0-------0h2p0---------------0---0-------0h2p0-----|
G|-----------------------------------------------------------------|
D|-----2-------2-------2-------0h2-----2-------2-------2-------0h2-| 
A|-----------------------------------------------------------------|
E|-0-------0-------0-------0-------0-------0-------0-------0-------|

They wont change they wont change they wont change theyre not changing me
e|-----------------------------------------------------------------|
B|-2-----2---------2-----2---------2-----2---------2-----2---------|
G|---2---------------2---------------2---------------2-------------|
D|-----2-------2-------2-------2-------2-------2-------2-------0---|
A|-0-------0-------0-------0-------0-------0-------0-------0-------|
E|-----------------------------------------------------------------|

e|-----0-------0---3p0-------0---------0-------0---3p0-------0-----|
B|0----------0---0-------0h2p0---------------0---0-------0h2p0-----|
G|-----------------------------------------------------------------|
D|-----2-------2-------2-------0h2-----2-------2-------2-------0h2-| x2
A|-----------------------------------------------------------------|
E|-0-------0-------0-------0-------0-------0-------0-------0-------|

e|-----0---------0-----0---|
B|-----------0---------0---|
G|---------------------1---|
D|-----2-------2-------2---|
A|---------------------0---|
E|-0-------0-------0---0---|

e|-----0-------0---3p0-------0---------0-------0---3p0-------0-----|
B|-----------0---0-------0h2p0---------------0---0-------0h2p0-----|
G|-----------------------------------------------------------------|
D|-----2-------2-------2-------0h2-----2-------2-------2-------0h2-| x2
A|-----------------------------------------------------------------|
E|-0-------0-------0-------0-------0-------0-------0-------0-------|

And oh my dog he died last week
e|-----0-------0---3p0-------0---------0-------0---3p0-------0-----|
B|0----------0---0-------0h2p0---------------0---0-------0h2p0-----|
G|-----------------------------------------------------------------|
D|-----2-------2-------2-------0h2-----2-------2-------2-------0h2-|
A|-----------------------------------------------------------------|
E|-0-------0-------0-------0-------0-------0-------0-------0-------|

We would sit we would talk he would bark and I would ball and weep
e|-----------------------------------------------------------------|
B|-2-----2---------2-----2---------2-----2---------2-----2---------|
G|---2---------------2---------------2---------------2-------------|
D|-----2-------2-------2-------2-------2-------2-------2-------0---|
A|-0-------0-------0-------0-------0-------0-------0-------0-------|
E|-----------------------------------------------------------------|

e|-----0-------0---3p0-------0---------0-------0---3p0-------0-----|
B|0----------0---0-------0h2p0---------------0---0-------0h2p0-----|
G|-----------------------------------------------------------------|
D|-----2-------2-------2-------0h2-----2-------2-------2-------0h2-| 
A|-----------------------------------------------------------------|
E|-0-------0-------0-------0-------0-------0-------0-------0-------|

He was kind he was smart he dont mind he was a friend to me
e|-----------------------------------------------------------------|
B|-2-----2---------2-----2---------2-----2---------2-----2---------|
G|---2---------------2---------------2---------------2-------------|
D|-----2-------2-------2-------2-------2-------2-------2-------0---|
A|-0-------0-------0-------0-------0-------0-------0-------0-------|
E|-----------------------------------------------------------------|

e|-----0-------0---3p0-------0---------0-------0---3p0-------0-----|
B|-----------0---0-------0h2p0---------------0---0-------0h2p0-----|
G|-----------------------------------------------------------------|
D|-----2-------2-------2-------0h2-----2-------2-------2-------0h2-| x2
A|-----------------------------------------------------------------|
E|-0-------0-------0-------0-------0-------0-------0-------0-------|

e|-----0---------0-----0---|
B|-----------0---------0---|
G|---------------------1---|
D|-----2-------2-------2---|
A|---------------------0---|
E|-0-------0-------0---0---| 

e|---------------------------------------------------------------|
B|---------------------------------------------------------------|
G|---------------------------------------------------------------|
D|-----2-------2-------2-------2-------2-------2-------2-------2-| 
A|---------------------------------------------------------------|
E|-0-------0-------0-------0-------0-------0-------0-------0-----|

e|---------------------------------------------------------------|
B|-0h2p0---------------------------0h2p0-------------------------|
G|---1-------------------------------1---------------------------|
D|-----2-------2-------2-------2-------2-------2-------2-------2-| x2
A|---------------------------------------------------------------|
E|-0-------0-------0-------0-------0-------0-------0-------0-----|

e|-----4-------2---0-----------------------0---------------------|
B|-------------------------0-------0---2-------2---0-------------|
G|---------------------------------------------------------------|
D|-----2-------2-------2-------2-------2-------2-------2-------2-| 
A|---------------------------------------------------------------|
E|-0-------0-------0-------0-------0-------0-------0-------0-----|

e|-------2---0-------------------0---------0---0---0---0---------|
B|-0h2p0-----------2---0---0h2-------2---------2---2---2---------|
G|---1-----------------------------------------1---1---1---------|
D|-----2-------2-------2-------2-------2-------2---2---2---------| 
A|---------------------------------------------0---0---0---------|
E|-0-------0-------0-------0-------0-------0---0---0---0---------|

The above two bars, repeat x4

e|-------0---------------0---------------0---------------0---------|
B|-5---------5-----4---------4-----2---------2-----0---------0-----|
G|-----------------------------------------------------------------|
D|-----2-------2-------2-------2-------2-------2-------2-------2---|
A|-0-------0-------0-------0-------0-------0-------0-------0-------|
E|-----------------------------------------------------------------|

e|---------------------------------------------------------------|
B|---------------------------------------------------------------|
G|-----1---------------------------------------------------------|
D|-----2-------2-------2-------2-------2-------2-------2-------2-| 
A|---------------------------------------------------------------|
E|-0-------0-------0-------0-------0-------0-------0-------0-----|

e|-------0---------------0---------------0---------------0---------|
B|-5---------5-----4---------------2---------2-----0---------0-----|
G|-----------------------------------------------------------------|
D|-----2-------2-------2-------2-------2-------2-------2-------2---|
A|-0-------0-------0-------0-------0-------0-------0-------0-------|
E|-----------------------------------------------------------------|

e|---------------------------------------------------------------|
B|-0h2p0---------------------------------------------------------|
G|---1-----------------------------------------------------------|
D|-----2-------2-------2-------2-------2-------2-------2-------2-|
A|---------------------------------------------------------------|
E|-0-------0-------0-------0-------0-------0-------0-------0-----|

e|-------0---------------0---------------0---------------0---------|
B|-5---------5-----5---------5-----4---------4-----4---------4-----|
G|-----------------------------------------------------------------|
D|-----2-------2-------2-------2-------2-------2-------2-------2---|
A|-0-------0-------0-------0-------0-------0-------0-------0-------|
E|-----------------------------------------------------------------|

e|-------0---------------0---------------0---------------0---------|
B|-2---------2-----2---------2-----0---------0-----0---------0-----|
G|-----------------------------------------------------------------|
D|-----2-------2-------2-------2-------2-------2-------2-------2---|
A|-0-------0-------0-------0-------0-------0-------0-------0-------|
E|-----------------------------------------------------------------|

e|-----0-------0---3p0-------0---------0-------0---3p0-------0-----|
B|-----------0---0-------0h2p0---------------0---0-------0h2p0-----|
G|-----------------------------------------------------------------|
D|-----2-------2-------2-------0h2-----2-------2-------2-------0h2-| x2
A|-----------------------------------------------------------------|
E|-0-------0-------0-------0-------0-------0-------0-------0-------|

And all my failures I can see
e|-----0-------0---3p0-------0---------0-------0---3p0-------0-----|
B|0----------0---0-------0h2p0---------------0---0-------0h2p0-----|
G|-----------------------------------------------------------------|
D|-----2-------2-------2-------0h2-----2-------2-------2-------0h2-|
A|-----------------------------------------------------------------|
E|-0-------0-------0-------0-------0-------0-------0-------0-------|

What id wrong what id right how I did it almost started it please
e|-----------------------------------------------------------------|
B|-2-----2---------2-----2---------2-----2---------2-----2---------|
G|---2---------------2---------------2---------------2-------------|
D|-----2-------2-------2-------2-------2-------2-------2-------0---|
A|-0-------0-------0-------0-------0-------0-------0-------0-------|
E|-----------------------------------------------------------------|

e|-----0-------0---3p0-------0---------0-------0---3p0-------0-----|
B|-----------0---0-------0h2p0---------------0---0-------0h2p0-----|
G|-----------------------------------------------------------------|
D|-----2-------2-------2-------0h2-----2-------2-------2-------0h2-| x2
A|-----------------------------------------------------------------|
E|-0-------0-------0-------0-------0-------0-------0-------0-------|

And all these chickens telling me
e|-----0-------0---3p0-------0---------0-------0---3p0-------0-----|
B|0----------0---0-------0h2p0---------------0---0-------0h2p0-----|
G|-----------------------------------------------------------------|
D|-----2-------2-------2-------0h2-----2-------2-------2-------0h2-|
A|-----------------------------------------------------------------|
E|-0-------0-------0-------0-------0-------0-------0-------0-------|

Youre a fool youre a liar shut him up and throw him in the fire
e|-----------------------------------------------------------------|
B|-2-----2---------2-----2---------2-----2---------2-----2---------|
G|---2---------------2---------------2---------------2-------------|
D|-----2-------2-------2-------2-------2-------2-------2-------0---|
A|-0-------0-------0-------0-------0-------0-------0-------0-------|
E|-----------------------------------------------------------------|

e|-----0-------0---3p0-------0---------0-------0---3p0-------0-----|
B|-----------0---0-------0h2p0---------------0---0-------0h2p0-----|
G|-----------------------------------------------------------------|
D|-----2-------2-------2-------0h2-----2-------2-------2-------0h2-| 
A|-----------------------------------------------------------------|
E|-0-------0-------0-------0-------0-------0-------0-------0-------|

I dont care if any right I can see the dark tonight
e|-----------------------------------------------------------------|
B|-2-----2---------2-----2---------2-----2---------2-----2---------|
G|---2---------------2---------------2---------------2-------------|
D|-----2-------2-------2-------2-------2-------2-------2-------0---|
A|-0-------0-------0-------0-------0-------0-------0-------0-------|
E|-----------------------------------------------------------------|

I can fail I can fail if im going to hell then let it be
e|-----------------------------------------------------------------|
B|-2-----2---------2-----2---------2-----2---------2-----2---------|
G|---2---------------2---------------2---------------2-------------|
D|-----2-------2-------2-------2-------2-------2-------2-------0---|
A|-0-------0-------0-------0-------0-------0-------0-------0-------|
E|-----------------------------------------------------------------|

e|-----0-------0---3p0-------0---------0-------0---3p0-------0-----|
B|-----------0---0-------0h2p0---------------0---0-------0h2p0-----|
G|-----------------------------------------------------------------|
D|-----2-------2-------2-------0h2-----2-------2-------2-------0h2-| x2
A|-----------------------------------------------------------------|
E|-0-------0-------0-------0-------0-------0-------0-------0-------|

And oh one day will be my turn
e|-----0-------0---3p0-------0---------0-------0---3p0-------0-----|
B|0----------0---0-------0h2p0---------------0---0-------0h2p0-----|
G|-----------------------------------------------------------------|
D|-----2-------2-------2-------0h2-----2-------2-------2-------0h2-|
A|-----------------------------------------------------------------|
E|-0-------0-------0-------0-------0-------0-------0-------0-------|

All these birds will come alive throw me in the fire and watch me burn
e|-----------------------------------------------------------------|
B|-2-----2---------2-----2---------2-----2---------2-----2---------|
G|---2---------------2---------------2---------------2-------------|
D|-----2-------2-------2-------2-------2-------2-------2-------0---|
A|-0-------0-------0-------0-------0-------0-------0-------0-------|
E|-----------------------------------------------------------------|

e|--0--|
B|--0--|
G|--1--|
D|--2--|
A|--0--|
E|--0--|





Comments


Popular The Dodos tabs & chords
Horny Hippies Chords
Undeclared Chords
Bob Tabs
Companions Tabs
Companions 1 Tabs
Fools 1 Tabs
Horny Hippies Tabs
The Season Tabs
Horny Hippies Ukulele
Walking Ukulele


Song lyrics



↑ Back to top | Tablatures and chords are parodies/interpretations of the original songs. You may use it for private study, scholarship, research or language learning purposes only
© 2014 AZChords.com Contact us | Privacy policy | DMCA | Add/correct tabs | Request tabs | Top 50 tabs