» » »

The Dodos, Beards Tabs (ver.1)

Artists:  A B C D E F G H I J K L M N O P Q R S T U V W X Y Z # 

Beards Tabs (ver.1)

The Dodos Tabs
 Rating:
4.3/5 (6 votes)
Beards lessons Tabs too difficult? Try these video lessons and learn fast
1
                So I tabbed out the different parts of the song, just put the pieces together and have fun.
Its an easy one.
Thanks,

Jake Miller

You can hide behind it
e|-----------------------------------------------------|
B|-----3---3------3---3-------3---3-------3---3--------|
G|-----4---4-0----4---4-------4---4-0-----4---4--------|
D|-5-----------4----------5-----------4----------------|
A|-----------------------------------------------------|
E|-----------------------------------------------------|

You can wear it how you like I know you
e|-----------------------------------------------------|
B|-----1---1-------1---1-------1---1-------1---1-------|
G|-----0---0-------0---0-------2---2-------0---0-------|
D|-----------0-----------0-----------0-----------------|
A|-3-----------2-----------0-----------2---------------|
E|-----------------------------------------------------|

Will
e|-----------------------------------------------------|
B|-----3---3------3---3-------3---3-------3---3--------|
G|-----4---4-0----4---4-------4---4-0-----4---4--------|
D|-5-----------4----------5-----------4----------------|
A|-----------------------------------------------------|
E|-----------------------------------------------------|

Grow it out until it comes to 
e|-----------------------------------------------------|
B|-----5---5-------5---5-------3---3-------3---3-------|
G|-----5---5-------5---5-------5---5-------5---5-------|
D|-7-----------7---------------------------------------|
A|-------------------------5-----------5---------------|
E|-----------------------------------------------------|

Standing still
e|-----------------------------------------------------|
B|-----3---3------3---3-------3---3-------3---3--------|
G|-----4---4-0----4---4-------4---4-0-----4---4--------|
D|-5-----------4----------5-----------4----------------|
A|-----------------------------------------------------|
E|-----------------------------------------------------|
            
Submit corrections

comments powered by Disqus
↑ Back to top | The Dodos Tabs for Beards. Lyrics for acoustic guitar and electric guitar. 1 Tablatures and chords are parodies/interpretations of the original songs. You may use it for private study, scholarship, research or language learning purposes only