>
 >
Acorn Factory

Acorn Factory Guitar Tabs

The Dodos - Acorn Factory chords, tabs, tablatures, lyrics

Guitar lessons | Add/correct | Request | Top 50 tabs Artists:  A B C D E F G H I J K L M N O P Q R S T U V W X Y Z 0-9

Acorn Factory Guitar Tabs – The Dodos

CD, Sheet music, Poster

Do you like Acorn Factory? Share with your friends now
Tabs
So I'm pretty sure about this one but i know its not 100%. 
I can play it comfortably to this tab and it sounds close enough to the song. 
I'm sure there are some minor things that i missed but other than that have fun with it.

Jake Miller


d|------------------------------------------------------------------|
B|--8---10---12-12-12-12---10---8-----------------------------------|
G|------------------------------------------------------------------|
D|--9---10---12-12-12-12---10---9-----------------------------------|
G|------------------------------------------------------------------|
D|------------------------------------------------------------------|

d|-7p5---------------0-----0---------0-----4---5-------9-----------9-------|
B|-----7p5-3p0---0h1/3-----3-------------------------------------0-0-------|
G|-------------------------0-----0-------0-----------0-------0-----0-----0-|
D|-----0-------0-------0---5---5-------0-------5-------9-------9---9---9---|
G|-0-------0-------0-------0-------0-------0-------0-------0-------0-------|
D|-------------------------------------------------------------------------|

d|-7p5---------------0-----0---------0-----4---5-------2-----------2-------|
B|-----7p5-3p0---0h1/3-----3-------------------------------------0-0-------|
G|-------------------------0-----0-------0-----------0-------0-----0-----0-|
D|-----0-------0-------0---5---5-------0-------5-------2-------2---2---2---|
G|-0-------0-------0-------0-------0-------0-------0-------0-------0-------|
D|-------------------------------------------------------------------------|

d|-12p9--------------------0---------------------------------------0-------|
B|----10p8-----------------0-------0---------0-----0---------0-----0-------|
G|---------9p7---7h9-11---11-----0-------0---------------0---------0-----0-|
D|-----0-------0-------0---0---0-------5-------5-------8-------8---0---0---|
G|-0-------0-------0-------0-------5-------5-------8-------8-------0-------|
D|-------------------------------------------------------------------------|

d|-7p5---------------0-----0---------0-----4---7---5---------------5-------|
B|-----7p5-3p0---0h1/3-----3---------------------------------0-----0-------|
G|-------------------------0-----0-------0---------------0---------0-----0-|
D|-----0-------0-------0---5---5-------0-------7-------0-------0---5---0---|
G|-0-------0-------0-------0-------0-------0-------0-------0-------0-------|
D|-------------------------------------------------------------------------|

d|-7p5---------------0-----0---------0-----4---5-------9-----------9-------|
B|-----7p5-3p0---0h1/3-----3-------------------------------------0-0-------|
G|-------------------------0-----0-------0-----------0-------0-----0-----0-|
D|-----0-------0-------0---5---5-------0-------5-------9-------9---9---9---|
G|-0-------0-------0-------0-------0-------0-------0-------0-------0-------|
D|-------------------------------------------------------------------------|

d|-7p5---------------0-----0---------0-----4---5-------2-----------2-------|
B|-----7p5-3p0---0h1/3-----3-------------------------------------0-0-------|
G|-------------------------0-----0-------0-----------0-------0-----0-----0-|
D|-----0-------0-------0---5---5-------0-------5-------2-------2---2---2---|
G|-0-------0-------0-------0-------0-------0-------0-------0-------0-------|
D|-------------------------------------------------------------------------|

d|-7p5---------------0-----0---------0-----4---5-------9-----------9-------|
B|-----7p5-3p0---0h1/3-----3-------------------------------------0-0-------|
G|-------------------------0-----0-------0-----------0-------0-----0-----0-|
D|-----0-------0-------0---5---5-------0-------5-------9-------9---9---9---|
G|-0-------0-------0-------0-------0-------0-------0-------0-------0-------|
D|-------------------------------------------------------------------------|

d|-7p5---------------0-----0---------0-----4---5-------2-----------2-------|
B|-----7p5-3p0---0h1/3-----3-------------------------------------0-0-------|
G|-------------------------0-----0-------0-----------0-------0-----0-----0-|
D|-----0-------0-------0---5---5-------0-------5-------2-------2---2---2---|
G|-0-------0-------0-------0-------0-------0-------0-------0-------0-------|
D|-------------------------------------------------------------------------|

d|-----------0-----2p0---------------0-----0-------2p0---------------0-----|
B|-0-----------------------3p0-------------0---------------3p0-------------|
G|-------0-------0-------0-------0h2-------0-----0-------0-------0h2-------|
D|-----2-------2-------2-------2-------2---2---2-------2-------2-------2---|
G|-----------------------------------------0-------------------------------|
D|-2-------2-------2-------2-------2-------2-------2-------2-------2-------|

d|-0-------2p0---------------0-----0-------2p0---------------0-------------|
B|-0---------------3p0-------------0---------------3p0---------------------|
G|-0-----0-------0-------0h2-------2-----0-------0-------0h2---------------|
D|-0---0-------0-------0-------0---0---0-------0-------0-------0-----------|
G|-4-------4-------4-------4-------2-------2-------2-------2---------------|
D|-------------------------------------------------------------------------|

d|-----------5-----7p5---------------5-----5-------7p5---------------5-----|
B|-5-----------------------7p5-------------5---------------7p5-------------|
G|-------5-------5-------5-------5h7-------5-----5-------5-------5h7-------|
D|-----5-------5-------5-------5-------5---5---5-------5-------5-------5---|
G|-5-------5-------5-------5-------5-------5-------5-------5-------5-------|
D|-------------------------------------------------------------------------|

d|-0-------------------------0------0-------------------------0------------|
B|-0-------12p0----10p0-------------0-------10p0----8p0--------------------|
G|-0-----0-------0-------0h11-------0-----0-------0-------0h9--------------|
D|12---12------12------12------12--10---10------10------10------10---------|
G|-0-------0-------0-------0--------0-------0-------0-------0--------------|
D|-------------------------------------------------------------------------|

d|-0-------------------------0-----0---------------------------------------|
B|-0-------5p0-----3p0-------------0-------5p0-----3p0---------------------|
G|-0-----0-------0-------0h4-------4-----0-------0-------0h4---------------|
D|-5---5-------5-------5-------5---5---5-------5-------5-------5-----------|
G|-0-------0-------0-------0-------0-------0-------0-------0---------------|
D|-------------------------------------------------------------------------|

d|-0-------------------------0------0-------------------------0------------|
B|-0-------12p0----10p0-------------0-------10p0----8p0--------------------|
G|-0-----0-------0-------0h11-------0-----0-------0-------0h9--------------|
D|12---12------12------12------12--10---10------10------10------10---------|
G|-0-------0-------0-------0--------0-------0-------0-------0--------------|
D|-------------------------------------------------------------------------|

d|-0-------------------------0-----0---------------------------------------|
B|-0-------5p0-----3p0-------------0-------5p0-----3p0---------------------|
G|-0-----0-------0-------0h4-------4-----0-------0-------0h4---------------|
D|-5---5-------5-------5-------5---5---5-------5-------5-------5-----------|
G|-0-------0-------0-------0-------0-------0-------0-------0---------------|
D|-------------------------------------------------------------------------|

d|-----------5-----7p5-------------------------------5-----7p5---------------5----|
B|-5-----------------------7p5-----5---7---8-----------------------7p5------------|
G|-------5-------5-------5-------5---------------5-------5-------5-------5h7------|
D|-----5-------5-------5-------5-------5-------5-------5-------5-------5-------5--|
G|-5-------5-------5-------5-------5-------5-------5-------5-------5-------5------|
D|--------------------------------------------------------------------------------|

d|-0-------7p0---------------0------7/9------------------------------0-----|
B|-0---------------7p0-----------------------0-----5p0-----3p0-------------|
G|-0-----0-------0-------0h5-----5-------0-------0-------0-------0h4-------|
D|-0---0-------0-------0-------0-------0-------0-------0-------0-------0---|
G|-0-------0-------0-------0-------0-------0-------0-------0-------0-------|
D|-------------------------------------------------------------------------|

d|-----------5-----7p5-------------------------------5-----7p5---------------5----|
B|-5-----------------------7p5-----5---7---8-----------------------7p5------------|
G|-------5-------5-------5-------5---------------5-------5-------5-------5h7------|
D|-----5-------5-------5-------5-------5-------5-------5-------5-------5-------5--|
G|-5-------5-------5-------5-------5-------5-------5-------5-------5-------5------|
D|--------------------------------------------------------------------------------|

d|-0-------7p0---------------0------7/9------------------------------0-----|
B|-0---------------7p0-----------------------0-----5p0-----3p0-------------|
G|-0-----0-------0-------0h5-----5-------0-------0-------0-------0h4-------|
D|-0---0-------0-------0-------0-------0-------0-------0-------0-------0---|
G|-0-------0-------0-------0-------0-------0-------0-------0-------0-------|
D|-------------------------------------------------------------------------|

d|-----------5-----7p5-------------------------------5-----7p5---------------5----|
B|-5-----------------------7p5-----5---7---8-----------------------7p5------------|
G|-------5-------5-------5-------5---------------5-------5-------5-------5h7------|
D|-----5-------5-------5-------5-------5-------5-------5-------5-------5-------5--|
G|-5-------5-------5-------5-------5-------5-------5-------5-------5-------5------|
D|--------------------------------------------------------------------------------|

d|-0-------7p0---------------0------7/9------------------------------0-----|
B|-0---------------7p0-----------------------0-----5p0-----3p0-------------|
G|-0-----0-------0-------0h5-----5-------0-------0-------0-------0h4-------|
D|-0---0-------0-------0-------0-------0-------0-------0-------0-------0---|
G|-0-------0-------0-------0-------0-------0-------0-------0-------0-------|
D|-------------------------------------------------------------------------|

d|-----------------0-------------------------------0---0---0---0-----------|
B|-0---------0-----0---------0-----0---------0-----0---0---0---0-----------|
G|-------7---------7-----7---------------5---------4---4---2---0-----------|
D|-----0-------0---0---0-------0-------0-------0---0---0---0---0-----------|
G|-7-------7-------7-------7-------5-------5-------4---4---2---0-----------|
D|-------------------------------------------------------------------------|

It just repeats itself from here.





Comments


Popular The Dodos tabs & chords
Ashley Chords
Fables 1 Chords
Two Medicines Chords
Companions Tabs
Dontt Stop Intro Tabs
Fools Tabs
Fools 1 Tabs
Notes Intro Tabs
Trades And Tariffs Tabs
Ashley Ukulele


Song lyrics



↑ Back to top | Tablatures and chords are parodies/interpretations of the original songs. You may use it for private study, scholarship, research or language learning purposes only
© 2014 AZChords.com Contact us | Privacy policy | DMCA | Add/correct tabs | Request tabs | Top 50 tabs