» » »

The Divine Comedy, The Pop Singer's Fear Of The Pollen Count Tabs (ver.1)

Artists:  A B C D E F G H I J K L M N O P Q R S T U V W X Y Z # 

The Pop Singer's Fear Of The Pollen Count Tabs (ver.1)

The Divine Comedy Tabs
Rating:
0/5 (0 votes)
The Pop Singer's Fear Of The Pollen Count lessons Tabs too difficult? Try these video lessons and learn fast
                Are you ready? OK let's do it: 1, 2, 3, 4
| G C | D C | G C | D C |
| G C | D C | G C | Dsus4 D |
| G C | D C | G C | D C |
| G C | D C | G C | Dsus4 | D |
(repeat this chord pattern over verses and chorus)
G C D C
Laugh at the tears you're crying
G C D C
Smile while your head explodes
G C D C G
Y' don't have to take this lying down,
C Dsus4 D
So blow your nose baby
G C D C
And just get your fingers clicking,
G C D C
To the rhythm and the rhyme
G C D C G
Otherwise you'll just be kicking around,
C Dsus4 D
And that's a crime
bridge:
E Am
How can you talk that way
D7 G G9/F
On such a lovely day?
Em C
When sunshine comes your way
F D
It's time to make some hay
I fall for this season every time
When it's hot and everybody smiles
I can't help myself, I'm in love with the summertime
Even when I get hay-fever I find
I may sneeze but I don't really mind
As long as I'm in love with the summertime
Ah, stop your belly-aching, we all know what it's like
There ain't a pill I haven't taken I guess, but that's alright baby
'Cause your Daddy's car is waiting, to take us to the sea
She feels like celebrating life, and so should we
(repeat bridge & chorus)
CLAP YOUR HANDS!
| D | | | |
| D | | |
D G/D
E-|-------------------------|-------------------------|
B-|-----7-----------------7-|-------------------------|
G-|-------7-----5---7-------|-7-----5---7-------------|
D-|-------------------------|-----------------7-5---7-|
A-|-------------------------|-------------------------|
E-|-------------------------|-------------------------|
1 + + 2 + + 3 + + 4 + + | 1 + + 2 + + 3 + + 4 + + |
Baba ba ba ba ba ba ba baba ba
D7 G/D
E-|-------------------------|-------------------------|
B-|-----7-----------------7-|-------------------------|
G-|-------7-----5---7-------|-7-----5---7-------------|
D-|-------------------------|-----------------7-5---4-|
A-|-------------------------|-------------------------|
E-|-------------------------|-------------------------|
1 + + 2 + + 3 + + 4 + + | 1 + + 2 + + 3 + + 4 + + |
Baba ba ba ba ba ba ba baba ba
D G/D
E-|-------------------------|-------------------------|
B-|-----7-----------------7-|-------------------------|
G-|-------7-----5---7-------|-7-----5---7-------------|
D-|-------------------------|-----------------7-5---7-|
A-|-------------------------|-------------------------|
E-|-------------------------|-------------------------|
1 + + 2 + + 3 + + 4 + + | 1 + + 2 + + 3 + + 4 + + |
Baba ba ba ba ba ba ba baba ba
D7
E-|-------------------------|-------------------------|
B-|-------------------------|-------------------7---8-|
G-|-----------4-------4---5-|-----4-5---7-----9-------|
D-|-----5-7---------7-------|-------------------------|
A-|-------------------------|-------------------------|
E-|-------------------------|-------------------------|
1 + + 2 + + 3 + + 4 + + | 1 + + 2 + + 3 + + 4 + + |
baba ba baba ba baba ba baba ba
(repeat chorus)
D C Gsus4 Gsus2 G
Summerti-----me
            

comments powered by Disqus
↑ Back to top | The Divine Comedy Tabs for The Pop Singer's Fear Of The Pollen Count. Lyrics for acoustic guitar and electric guitar. Tablatures and chords are parodies/interpretations of the original songs. You may use it for private study, scholarship, research or language learning purposes only