>
 >
Note To Self

Note To Self Guitar Tabs

The Divine Comedy - Note To Self chords, tabs, tablatures, lyrics

Guitar lessons | Add/correct | Request | Top 50 tabs Artists:  A B C D E F G H I J K L M N O P Q R S T U V W X Y Z 0-9

Note To Self Guitar Tabs – The Divine Comedy

CD, Sheet music, Poster

Do you like Note To Self? Share with your friends now
Tabs
	 Album:		Regeneration
	  Year:		2001


Guitar 1&2: 	Standard Tuning
		Capo: 2nd fret

All chords and tabs are relative to capo!

PART I (intro&verse)			tab for Guitar1
PART II ("into the heart of darkness") 	tab for Guitar1 & Guitar2
PART III (the loud part...)		chords

====================================================================

PART I: (intro+verse)

Guitar 1 (RIGHT)
                                Gm                          
                  |--3-|        |--3-|             |--3-|   
     H.           Q    E        Q    E  E  E  Q    Q    E   
E||------------------------||------------------------------|
B||------------------------||------------------------------|
G||------------------------||*----------------3------------|
D||--------------------4h--||*--5-----------------------5--|
A||------------------------||--------5---------------------|
E||------------------------||-----------3------------------|


  |--3-|             |--3-|      |--3-|             |--3-|   
  Q    E  E  E  Q    Q    E      Q    E  E  E  Q    Q    E   
------------------------------|-----------------------------|
------------------------------|-----------------------------|
----------------3-------------|----------------3------------|
--L-----------------------4h--|--5-----------------------5--|
-------5----------------------|-------5---------------------|
----------3-------------------|----------3------------------|


                                 Gm/E  [E semi-dim]                      
  |--3-|             |--3-|      |--3-|             |--3-|   
  Q    E  E  E  Q    Q    E      Q    E  E  E  Q    Q    E   
------------------------------|-----------------------------|
------------------------------|-----------------------------|
----------------3-------------|----------------3------------|
--L-----------------------4h--|--5-----------------------5--|
-------5----------------------|-------5---------------------|
----------3-------------------|----------0------------------|


  |--3-|             |--3-|      |--3-|             |--3-|   
  Q    E  E  E  Q    Q    E      Q    E  E  E  Q    Q    E   
------------------------------|-----------------------------|
------------------------------|-----------------------------|
----------------3-------------|----------------3------------|
--L-----------------------4h--|--5-----------------------5--|
-------5----------------------|-------5---------------------|
----------0-------------------|----------0------------------|



(skip this bar when verse ends and play the next one instead):

  |--3-|             |--3-|     
  Q    E  E  E  Q    Q    E      
------------------------------||
------------------------------||
----------------3------------*||
--L-----------------------4--*||
-------5----------------------||
----------0-------------------||

=================================================

Part II: (Into the heart of darkness...)


GUITAR 1 (RIGHT)

=================================================

  |--3-|             |--3-|   
  Q    E  E  E  Q    Q    E  
-----------------------------|
-----------------------------|
----------------3---------3--|
--L--------------------------|
-------5---------------------|
----------0------------------|


  Edim/A                                                      

  |---3--|             |--3-|     |--3-|             |--3-|   
  Q      E  E  E  Q    Q    E     Q    E  E  E  Q    Q    E   
-------------------------------|-----------------------------|
------------------5------------|----------------5------------|
--L-------------------------3--|--L-----------------------2--|
---------5---------------------|-------5---------------------|
------------0----------0-------|----------0----------0-------|
-------------------------------|-----------------------------|


  Dm                                                        
  |--3-|             |--3-|     |--3-|             |--3-|   
  Q    E  E  E  Q    Q    E     Q    E  E  E  Q    Q    E   
-----------------------------|-----------------------------|
----------------3------------|----------------3------------|
--L-----------------------2--|--L-----------------------2--|
-------3---------------------|-------3---------------------|
----------0----------0-------|----------0----------0-------|
-----------------------------|-----------------------------|


  A7                                                      
  |--3-|            |--3-|     |--3-|            |--3-|   
  Q    E  Q    Q    Q    E     Q    E  Q    Q    Q    E   
----------------------------|----------------------------|
---------------2------------|---------------2------------|
--L----------------------2--|--L----------------------2--|
-------2--------------------|-------2--------------------|
----------------------------|----------------------------|
----------0---------0-------|----------0---------0-------|


  Dm                                                        
  |--3-|             |--3-|     |--3-|             |--3-|   
  Q    E  E  E  Q    Q    E     Q    E  E  E  Q    Q    E   
-----------------------------|-----------------------------|
----------------3------------|----------------3------------|
--L-----------------------2--|--L-----------------------2--|
-------3---------------------|-------3---------------------|
----------0----------0-------|----------0----------0-------|
-----------------------------|-----------------------------|


  Bbmaj7                                                      
  |---3--|             |--3-|     |--3-|             |--3-|   
  Q      E  E  E  Q    Q    E     Q    E  E  E  Q    Q    E   
-------------------------------|-----------------------------|
------------------3------------|----------------3------------|
--L-------------------------2--|--L-----------------------0--|
---------3---------------------|-------3---------------------|
------------1----------1-------|----------1----------1-------|
-------------------------------|-----------------------------|


  Em7(b5)/Bb [semi-diminished]
  |--3-|             |--3-|     |--3-|            |--3-|   
  Q    E  E  E  Q    Q    E     Q    E  Q    Q    Q    E   
-----------------------------|----------------------------|
----------------3------------|---------------3------------|
--L-----------------------0--|--L----------------------0--|
-------2---------------------|-------2--------------------|
----------1----------1-------|----------1---------1-------|
-----------------------------|----------------------------|


  Dm/F
  |--3-|            |--3-|     |--3-|            |--3-|   
  Q    E  Q    Q    Q    E     Q    E  Q    Q    Q    E   
----------------------------|----------------------------|
---------------3------------|---------------3------------|
--L----------------------2--|--L----------------------0--|
-------3--------------------|-------3--------------------|
----------------------------|----------------------------|
----------1---------1-------|----------1---------1-------|


  Dbdim                                                  
  |--3--|  |--3-|  |--3-|  |--3-|                        
  Q     E  Q    E  Q    E  Q    E     H        H         
--------------------------------0--|--L-----------------|
----------------2--L---------------|--------------------|
--L---------------------0----------|--------------------|
--------2------------------2-------|--------------------|
-----------0-----------------------|--------------------|
-----------------------------------|--------------------|


GUITAR 2 (LEFT)

=================================================

               |--3-|    
  H.           Q    E  
-----------------------|
--------------------8--|
-----------------------|
-----------------------|
-----------------------|
-----------------------|


  |--3-|            |--3-|     |--3-|            |--3-|   
  Q    E  Q    Q    Q    E     Q    E  Q    Q    Q    E   
---------------6------------|---------------6------------|
--L----------------------8--|--L----------------------6--|
-------9--L-----------------|-------9--L-----------------|
----------------------------|----------------------------|
----------------------------|----------------------------|
----------------------------|----------------------------|


  |--3-|            |--3-|     |--3-|            |--3-|   
  Q    E  Q    Q    Q    E     Q    E  Q    Q    Q    E   
---------------5------------|---------------5------------|
--L----------------------6--|--L----------------------5--|
-------7--L-----------------|-------7--L-----------------|
----------------------------|----------------------------|
----------------------------|----------------------------|
----------------------------|----------------------------|


  |--3-|            |--3-|     |--3-|            |--3-|   
  Q    E  Q    Q    Q    E     Q    E  Q    Q    Q    E   
---------------3------------|---------------3------------|
--L----------------------5--|--L----------------------6--|
-------6--L-----------------|-------6--L-----------------|
----------------------------|----------------------------|
----------------------------|----------------------------|
----------------------------|----------------------------|


  |--3-|            |--3-|     |--3-|            |--3-|   
  Q    E  Q    Q    Q    E     Q    E  Q    Q    Q    E   
---------------5------------|---------------5------------|
--L----------------------6--|--L----------------------6--|
-------7--L-----------------|-------7--L-----------------|
----------------------------|----------------------------|
----------------------------|----------------------------|
----------------------------|----------------------------|


  |--3-|            |--3-|     |--3-|            |--3-|   
  Q    E  Q    Q    Q    E     Q    E  Q    Q    Q    E   
---------------5------------|---------------5------------|
--L----------------------6--|--L----------------------5--|
-------7--L-----------------|-------7--L-----------------|
----------------------------|----------------------------|
----------------------------|----------------------------|
----------------------------|----------------------------|


  |--3-|            |--3-|     |--3-|            |--3-|   
  Q    E  Q    Q    Q    E     Q    E  Q    Q    Q    E   
---------------6------------|---------------6------------|
--L----------------------5--|--L----------------------6--|
-------7--L-----------------|-------7--L-----------------|
----------------------------|----------------------------|
----------------------------|----------------------------|
----------------------------|----------------------------|


  |--3-|            |--3-|     |--3-|            |--3-|   
  Q    E  Q    Q    Q    E     Q    E  Q    Q    Q    E   
---------------5------------|---------------5------------|
--L----------------------6--|--L----------------------8--|
-------7--L-----------------|-------7--L-----------------|
----------------------------|----------------------------|
----------------------------|----------------------------|
----------------------------|----------------------------|


  |--3-|  |--3--|   |--3--|   |--3--|                                      
  Q    E  Q     E   Q     E   Q     E      Q                               
-----------------------------------12--|---L----||
--L------------11---L------------------|--------||
-------9-----------------12------------|--------||
---------------------------------------|--------||
----------0-------------------0--------|--------||
---------------------------------------|--------||

=================================================


PART III: (Guitar 1&2)

Em               A
What the f*ck is happening?
          Em
Where has everybody gone?
                 A
What the hell is going on? 
                                                                   


	 Dmaj7  Gmaj7
There is no  -  thing
   Bm     F#      C    Gmaj7
as frightening as be - ing alone

=================================================

Duration Legend
---------------
L - legatto (tied note)
W - whole
H - half
Q - quarter
E - 8th
S - 16th
T - 32nd
X - 64th
. - note dotted
|-n-|  - n-tuplets





Comments


Popular The Divine Comedy tabs & chords
A Lady Of A Certain Age Chords
Bad Ambassador Chords
Bad Ambassador Intro Chords
Love What You Do Chords
Perfect Lovesong Chords
Songs Of Love 2 Tabs
The Pop Singer's Fear Of The Pollen Count Tabs
At The Indie Disco Ukulele
Bad Ambassador Ukulele
Songs Of Love Ukulele


Song lyrics



↑ Back to top | Tablatures and chords are parodies/interpretations of the original songs. You may use it for private study, scholarship, research or language learning purposes only
© 2014 AZChords.com Contact us | Privacy policy | DMCA | Add/correct tabs | Request tabs | Top 50 tabs