» » »

The Crown, Zombified Tabs (ver.1)

Artists:  A B C D E F G H I J K L M N O P Q R S T U V W X Y Z # 

Zombified Tabs (ver.1)

The Crown Tabs
 Rating:
4/5 (4 votes)
Zombified lessons Tabs too difficult? Try these video lessons and learn fast
                THE CROWN - ZOMBIFIED
(Possessed 13, 2003)

Key
= after note = vibrato
^ after note = heavy vibrato 
\ = slide down
/ = slide up
+ = tap
h = hammer
p = pull
n = natural harmonic
s = pinching harmonic (squeal)
* = tremolo pick
t = trill
b = bend
|-3-| = triplet

n number above the tab = play the first part then the first finishing part
			 play the first part a second time and then play the second finishing part
			 etc.

Tune Down 2 Steps

Riff 1

C  ------------------
G  ------------------
Eb ------------------
Bb -----5-----4-2----
F  -----5-----4-2----
C  -333-3-222-2-0----

Riff 1A

C  ------------------------------------
G  ------------------------------------
Eb ---------------------------------4--
Bb -----5-----4-2--------5-----4-2--4--
F  -----5-----4-2--------5-----4-2--2--
C  -333-3-222-2-0----333-3-222-2-0-----

Riff 2

C  -----------------------------------------------------------------
G  -----------------------------------------------------------------
Eb -----------------------------------------------------------------
Bb -----------------777---------------------------------------------
F  -555-555-777-888-----888-777-888-----------------555-------------
C  ---------------------------------333-333-555-666-----666-555-666-

Riff 3A

C  ---------------------------------------------------------
G  ---------------------------------------------------------
Eb ---------------------------------------------------------
Bb -------------------------222-222-------------------------
F  -222-222-333-222-000-000---------222-222-333-222-0-------
C  ---------------------------------------------------3-2-0-

Riff 3

C  ---------------------------------------------------------
G  ---------------------------------------------------------
Eb ---------------------------------------------------------
Bb -------------------------222-222-------------------------
F  -222-222-333-222-000-000---------222-222-333-222-0-------
C  ---------------------------------------------------3-2-0-

C  ---------------------------------------------------------
G  ---------------------------------------------------------
Eb ---------------------------------------------------------
Bb -------------------------222-222-------------------------
F  -222-222-333-222-000-000---------222-222-333-222-0-------
C  ---------------------------------------------------3-2-3-

Riff 4

C  ----------------------------------------------------------------
G  ----------------------------------------------------------------
Eb ----------------------------------------------------------------
Bb ------------------------------------------------222-222-555-555-
F  ---------111-000-----------3-2----------111-000-----------------
C  -000-111---------222-333-3------000-111-------------------------

   1
C  ------------------------------------------------------------
G  ------------------------------------------------------------
Eb ------------------------------------------------------------
Bb ----------------------------------------------------5-----4-
F  ---------111-000-----------3-2----------111-000-----5-----4-
C  -000-111---------222-333-3------000-111---------333-3-222-2-

   2
C  ------------------------------------------------------------------------
G  ------------------------------------------------------------------------
Eb ------------------------------------------------------------------------
Bb ----------------------------------------------------5-----4-----3-----4-
F  ---------111-000-----------3-2----------111-000-----5-----4-----3-----4-
C  -000-111---------222-333-3------000-111---------333-3-222-2-111-1-222-2-

Riff 4A

C  ----------------------------------------------------------------
G  ----------------------------------------------------------------
Eb ----------------------------------------------------------------
Bb ------------------------------------------------222-222-555-555-
F  ---------111-000-----------3-2----------111-000-----------------
C  -000-111---------222-333-3------000-111-------------------------

   1
C  ------------------------------------------------------------
G  ------------------------------------------------------------
Eb ------------------------------------------------------------
Bb ----------------------------------------------------5-----4-
F  ---------111-000-----------3-2----------111-000-----5-----4-
C  -000-111---------222-333-3------000-111---------333-3-222-2-

   2
C  -----------------------------------------------------------------------
G  -----------------------------------------------------------------------
Eb -----------------------------------------------------------------------
Bb ----------------------------------------------5-----4-----3-----4-2----
F  -------11-00---------3-2----------111-000-----5-----4-----3-----4-2----
C  -00-11-------22-33-3------000-111---------333-3-222-2-111-1-222-2-0----

Riff 4C

C  ----------------------------------------------------------------
G  ----------------------------------------------------------------
Eb ----------------------------------------------------------------
Bb ------------------------------------------------222-222-555-555-
F  ---------111-000-----------3-2----------111-000-----------------
C  -000-111---------222-333-3------000-111-------------------------

   1
C  ------------------------------------------------------------
G  ------------------------------------------------------------
Eb ------------------------------------------------------------
Bb ----------------------------------------------------5-----4-
F  ---------111-000-----------3-2----------111-000-----5-----4-
C  -000-111---------222-333-3------000-111---------333-3-222-2-

   2
C  -------------------------------------------------------------------------------
G  -------------------------------------------------------------------------------
Eb -------------------------------------------------------------------------------
Bb ----------------------------------------------------5-----4-----3-----4-2----2-
F  ---------111-000-----------3-2----------111-000-----5-----4-----3-----4-2----2-
C  -000-111---------222-333-3------000-111---------333-3-222-2-111-1-222-2-0----0-

Riff 5

C  -------------------------------
G  -------------------------------
Eb -------------------------------
Bb -2--4-5-4--5-7-5--7-9-10-9-7-9-
F  -2--4-5-4--5-7-5--7-9-10-9-7-9-
C  -0--2-3-2--3-5-3--5-7-8 -7-5-7-

Order

Riff 1 x 4
Riff 2 x 3
Riff 3A x 2
Riff 2 x 2
Riff 3 x 1
Riff 4 x 1
Riff 2 x 2
Riff 3 x 1
Riff 4A x 1
Riff 1 x 1
Riff 1A x 3
Solo over Riff 5 x 4
Riff 2 x 2
Riff 3 x 1
Riff 4C x 1
            
Submit corrections

comments powered by Disqus
↑ Back to top | The Crown Tabs for Zombified. Lyrics for acoustic guitar and electric guitar. Tablatures and chords are parodies/interpretations of the original songs. You may use it for private study, scholarship, research or language learning purposes only