» » »

The Crown, World Below Bass tabs (ver.1)

Artists:  A B C D E F G H I J K L M N O P Q R S T U V W X Y Z # 

World Below Bass tabs (ver.1)

The Crown Tabs
 Rating:
4/5 (4 votes)
World Below lessons Tabs too difficult? Try these video lessons and learn fast
1
                
WORLD BELOW (Bassline)
As recorded by The Crown
(From the 2002 Album CROWNED UNHOLY)

	

Words and Music by The Crown
Arranged by The Crown

Gtr I (D G C F) - 'Bass'

 Intro
  Q=125
 4/4
  Gtr I
  W          W          W          H.      Q
|----------|----------|----------|-------------|
|----------|----------|----------|-------------|
|----------|----------|----------|-------------|
|-0--------|-0--------|-0--------|-0-------7\--|


  |-3-| |-3-| |-3-| |-3-|   |-3-| |-3-| |-3-| |-3-|
  E E E E E E E E E E E E   E E E E E E E E E E E E
|-------------------------|-------------------------|
|-------------------------|-------------------------|
|-------------------------|-------------------------|
|-0-0-0-0-0-0-0-0-0-0-0-0-|-0-0-0-0-0-0-0-0-0-0-0-0-|


  |-3-| |-3-| |-3-| |-3-|   |-3-| |-3-| |-3-| |-3-|
  E E E E E E E E E E E E   E E E E E E E E E E E E
|-------------------------|----------------------------|
|-------------------------|----------------------------|
|-------------------------|----------------------------|
|-0-0-0-0-0-0-0-0-0-0-0-0-|-0-0-0-0-0-0-0-0-0-0-0-0----|


   Pre-Verse
    |-3-| |-3-| |-3-| |3|   |-3-| |-3-| |-3-| |3|
    E E E E E E E E E Q E   E E E E E E E E E Q E
||------------------------|-----------------------|
||o-----------------------|-----------------------|
||o-----------------------|-----------------------|
||--0-0-0-0-0-0-0-0-0-5-7-|-0-0-0-0-0-0-0-0-0-5-7-|


  |-3-| |-3-| |-3-| |3|   |-3-| |-3-| |-3-| |3|
  E E E E E E E E E Q E   E E E E E E E E E Q E
|-----------------------|--------------------------||
|-----------------------|-------------------------o||
|-----------------------|-------------------------o||
|-0-0-0-0-0-0-0-0-0-5-7-|-0-0-0-0-0-0-0-0-0-3-1----||


  |-3-| |-3-| |-3-| |3|   |-3-| |-3-| |-3-| |3|
  E E E E E E E E E Q E   E E E E E E E E E Q E
|-----------------------|-----------------------|
|-----------------------|-----------------------|
|-7-7-7-7-7-7-7-7-7-----|-7-7-7-7-7-7-7-7-7-----|
|-------------------5-7-|-------------------5-7-|


  |-3-| |-3-| |-3-| |3|   |-3-| |-3-| |-3-| |3|
  E E E E E E E E E Q E   E E E E E E E E E Q E
|-----------------------|--------------------------|
|-----------------------|--------------------------|
|-7-7-7-7-7-7-7-7-7-----|-7-7-7-7-7-7-7-7-7--------|
|-------------------5-7-|-------------------3-1----|


  |-3-| |-3-| |-3-| |3|   |-3-| |-3-| |-3-| |3|
  E E E E E E E E E Q E   E E E E E E E E E Q E
|-----------------------|-----------------------|
|-----------------------|-----------------------|
|-7-7-7-7-7-7-7-7-7-----|-7-7-7-7-7-7-7-7-7-----|
|-------------------5-7-|-------------------5-7-|


  |-3-| |-3-| |-3-| |3|   |-3-| |-3-| |-3-| |3|
  E E E E E E E E E Q E   E E E E E E E E E Q E
|-----------------------|--------------------------|
|-----------------------|--------------------------|
|-7-7-7-7-7-7-7-7-7-----|-7-7-7-7-7-7-7-7-7--------|
|-------------------5-7-|-------------------5-7----|


    |---3---| |---3---|   |---3---| |---3---|
    Q E E E E Q E E E E   Q E E E E Q E E E E
||----------------------|---------------------|
||o---------------------|---------------------|
||o---------------------|---------------------|
||--0-0-0-0-0-2-2-2-2-2-|-3-3-3-3-3-3-3-2-3-2-|


  |---3---| |---3---|   |---3---| |---3---|
  Q E E E E Q E E E E   Q E E E E Q E E E E
|---------------------|------------------------||
|---------------------|-----------------------o||
|---------------------|-----------------------o||
|-0-0-0-0-0-2-2-2-2-2-|-3-3-3-3-3-3-3-2-3-2----||


   Verse
    $
    $$
    |---3---| |---3---|   |---3---| |---3---|
    Q E E E E Q E E E E   Q E E E E Q E E E E
||----------------------|---------------------|
||o---------------------|---------------------|
||o---------------------|---------------------|
||--0-0-0-0-0-2-2-2-2-2-|-3-3-3-3-3-3-3-2-3-2-|


  |---3---| |---3---|   |---3---| |---3---|
  Q E E E E Q E E E E   Q E E E E Q E E E E
|---------------------|------------------------||
|---------------------|-----------------------o||
|---------------------|-----------------------o||
|-0-0-0-0-0-2-2-2-2-2-|-3-3-3-3-3-3-3-2-3-2----||


   Bridge
                    PM--------------------|
    |-3--| |-3--|   |-3-| |-3-| |-3-| |-3-|
    H  E E H  E E   E E E E E E E E E E E E
||----------------|-------------------------|
||o---------------|-------------------------|
||o---------------|-------------------------|
||--5--x-x-3--2-3-|-0-0-0-0-0-0-0-0-0-0-0-0-|


                                    D.S.
                  PM--------------------|
  |-3--| |-3--|   |-3-| |-3-| |-3-| |-3-|
  H  E E H  E E   E E E E E E E E E E E E
|---------------|----------------------------||
|---------------|---------------------------o||
|---------------|---------------------------o||
|-5--x-x-3--2-3-|-0-0-0-0-0-0-0-0-0-0-0-0----||


   Chorus
    PM--|                             PM--|
    |-3-|           |---3---|         |-3-|
    E E E q  H      Q E E E E Q  Q    E E E q  H
||----------------|-----------------|---------------|
||o---------------|-----------------|---------------|
||o-------2--3----|-----------------|-------2--3----|
||--0-0-0---------|-3-3-3-3-3-2--3--|-0-0-0---------|


                                      D.S.S.
  |---3---|
  Q E E E E Q  Q      W          +Q   q  q  Q
|------------------||----------|---------------|
|-----------------o||----------|---------------|
|-----------------o||----------|---------------|
|-3-3-3-3-3-2--3---||-0--------|-(0)--0--0-----|


   Bridge
   3/4       4/4
    H.        W         3x  W          W
||----------|-----------||-----------|------|
||o---------|----------o||-----------|------|
||o---------|----------o||-----------|------|
||----------|-----------||-12S=======|=0----|


   Solo
   3/4             4/4
    |---3---| |3|   |---3---| |---3---|
    Q E E E E Q E   Q E E E E Q.  E E E
||----------------|---------------------|
||o---------------|---------------5-4-3-|
||o-------------3-|---------------------|
||--0-0-0-0-0-1---|-0-0-0-0-0-3---------|


 3/4             4/4
  |---3---| |3|   |---3---| |---3---|
  Q E E E E Q E   Q E E E E Q.  E E E
|---------------|----------------------||
|---------------|---------------5-4-3-o||
|-------------3-|---------------------o||
|-0-0-0-0-0-1---|-0-0-0-0-0-3----------||


   3/4
    |---3---|      |---3---|      |---3---|
    Q E E E E Q    Q E E E E Q    Q E E E E Q    Q  Q  Q
||---------------|--------------|--------------|------------||
||o--------------|--------------|--------------|-----------o||
||o--------------|--------------|--------------|-----------o||
||--7-7-7-7-7-8--|-7-7-7-7-7-5--|-7-7-7-7-7-8--|-7--5--6----||


   Bridge
                   4/4
    |---3---| |3|   |---3---| |---3---|
    Q E E E E Q E   Q E E E E Q.  E E E
||----------------|---------------------|
||o---------------|---------------5-4-3-|
||o-------------3-|---------------------|
||--0-0-0-0-0-1---|-0-0-0-0-0-3---------|


 3/4             4/4
  |---3---| |3|   |---3---| |---3---|
  Q E E E E Q E   Q E E E E Q.  E E E
|---------------|-----------------------||
|---------------|---------------5-4-3--o||
|-------------3-|----------------------o||
|-0-0-0-0-0-1---|-0-0-0-0-0-3-----------||


  W          +W           +W           +W
|----------|------------|------------|--------|
|----------|------------|------------|--------|
|----------|------------|------------|--------|
|-0--------|-(0)--------|-(0)--------|-(0)----|


  +W           +W           W          H    Q  Q
|------------|------------|----------|-------------|
|------------|------------|----------|-------------|
|------------|------------|----------|-------------|
|-(0)--------|-(0)--------|-5--------|-3----2--3---|


   Solo
    |---3---| |---3---|   |---3---| |---3---|
    Q E E E E Q E E E E   Q E E E E Q E E E E
||----------------------|---------------------|
||o---------------------|---------------------|
||o---------------------|---------------------|
||--0-0-0-0-0-2-2-2-2-2-|-3-3-3-3-3-3-3-2-3-2-|


  |---3---| |---3---|   |---3---| |---3---|
  Q E E E E Q E E E E   Q E E E E Q E E E E
|---------------------|------------------------||
|---------------------|-----------------------o||
|---------------------|-----------------------o||
|-0-0-0-0-0-2-2-2-2-2-|-3-3-3-3-3-3-3-2-3-2----||


  Q  Q  Q  Q    Q  Q  Q  Q    Q  Q  Q  Q    Q  Q  Q  Q
|-------------|-------------|-------------|--------------|
|-------------|-------------|-------------|--------------|
|-------------|-------------|-------------|--------------|
|-5--5--5--5--|-3--3--3--3--|-5--5--5--5--|-3--3--3--3---|


  Q  Q  Q  Q    Q  Q  Q  Q    Q  Q  Q  Q    Q  Q  Q  Q
|-------------|-------------|-------------|--------------|
|-------------|-------------|-------------|--------------|
|-------------|-------------|-------------|--------------|
|-5--5--5--5--|-3--3--3--3--|-2--2--2--2--|-3--3--5--5---|


  |-3-| |-3-| |-3-| |-3-|   |-3-| |-3-| |-3-| |-3-|
  E E E E E E E E E E E E   E E E E E E E E E E E E
|-------------------------|-------------------------|
|-------------------------|-------------------------|
|-------------------------|-------------------------|
|-0-0-0-0-0-0-0-0-0-0-0-0-|-0-0-0-0-0-0-0-0-0-0-0-0-|


  |-3-| |-3-| |-3-| |-3-|   |-3-| |-3-| |-3-| |-3-|
  E E E E E E E E E E E E   E E E E E E E E E E E E
|-------------------------|----------------------------|
|-------------------------|----------------------------|
|-------------------------|----------------------------|
|-0-0-0-0-0-0-0-0-0-0-0-0-|-0-0-0-0-0-0-0-0-0-0-0-0----|


 Pre-Verse
  |-3-| |-3-| |-3-| |3|   |-3-| |-3-| |-3-| |3|
  E E E E E E E E E Q E   E E E E E E E E E Q E
|-----------------------|-----------------------|
|-----------------------|-----------------------|
|-----------------------|-----------------------|
|-0-0-0-0-0-0-0-0-0-5-7-|-0-0-0-0-0-0-0-0-0-5-7-|


  |-3-| |-3-| |-3-| |3|   |-3-| |-3-| |-3-| |3|
  E E E E E E E E E Q E   E E E E E E E E E Q E
|-----------------------|--------------------------|
|-----------------------|--------------------------|
|-----------------------|--------------------------|
|-0-0-0-0-0-0-0-0-0-5-7-|-0-0-0-0-0-0-0-0-0-3-1----|


  |-3-| |-3-| |-3-| |3|   |-3-| |-3-| |-3-| |3|
  E E E E E E E E E Q E   E E E E E E E E E Q E
|-----------------------|-----------------------|
|-----------------------|-----------------------|
|-7-7-7-7-7-7-7-7-7-----|-7-7-7-7-7-7-7-7-7-----|
|-------------------5-7-|-------------------5-7-|


  |-3-| |-3-| |-3-| |3|   |-3-| |-3-| |-3-| |3|
  E E E E E E E E E Q E   E E E E E E E E E Q E
|-----------------------|--------------------------|
|-----------------------|--------------------------|
|-7-7-7-7-7-7-7-7-7-----|-7-7-7-7-7-7-7-7-7--------|
|-------------------5-7-|-------------------3-1----|


  |-3-| |-3-| |-3-| |3|   |-3-| |-3-| |-3-| |3|
  E E E E E E E E E Q E   E E E E E E E E E Q E
|-----------------------|-----------------------|
|-----------------------|-----------------------|
|-7-7-7-7-7-7-7-7-7-----|-7-7-7-7-7-7-7-7-7-----|
|-------------------5-7-|-------------------5-7-|


  |-3-| |-3-| |-3-| |3|   |-3-| |-3-| |-3-| |3|
  E E E E E E E E E Q E   E E E E E E E E E Q E
|-----------------------|--------------------------|
|-----------------------|--------------------------|
|-7-7-7-7-7-7-7-7-7-----|-7-7-7-7-7-7-7-7-7--------|
|-------------------5-7-|-------------------5-7----|


   Chorus
    PM--|                             PM--|
    |-3-|           |---3---|         |-3-|
    E E E q  H      Q E E E E Q  Q    E E E q  H
||----------------|-----------------|---------------|
||o---------------|-----------------|---------------|
||o-------2--3----|-----------------|-------2--3----|
||--0-0-0---------|-3-3-3-3-3-2--3--|-0-0-0---------|


  |---3---|
  Q E E E E Q  Q      W          +Q   q  q  Q
|------------------||----------|---------------*|
|-----------------o||----------|---------------*|
|-----------------o||----------|---------------*|
|-3-3-3-3-3-2--3---||-0--------|-(0)--0--0-----*|



Duration Legend
---------------
W - whole; H - half; Q - quarter; E - 8th; S - 16th; T - 32nd; X - 64th; a - acciaccatura
+ - note tied to previous; . - note dotted; .. - note double dotted
Uncapitalized letters represent notes that are staccato (1/2 duration)
Irregular groupings are notated above the duration line
Duration letters will always appear directly above the note/fret number it represents the
duration for.  Duration letters with no fret number below them represent rests.  Multi-
bar rests are notated in the form Wxn, where n is the number of bars to rest for.  Low
melody durations appear below the staff

Tablature Legend
----------------
 h   - hammer-on
 p   - pull-off
 b   - bend
 pb  - pre-bend
 r   - bend release (if no number after the r, then release immediately)
 /\  - slide into or out of (from/to "nowhere")
 s   - legato slide
 S   - shift slide
 - natural harmonic
[n]  - artificial harmonic
n(n) - tapped harmonic
 ~   - vibrato
 tr  - trill
 T   - tap
 TP  - trem. picking
 PM  - palm muting
\n/  - tremolo bar dip; n = amount to dip
 \n  - tremolo bar down
 n/  - tremolo bar up
/n\  - tremolo bar inverted dip
 =   - hold bend; also acts as connecting device for hammers/pulls
 <> - volume swell (louder/softer)
 x   - on rhythm slash represents muted slash
 o   - on rhythm slash represents single note slash

Misc Legend
-----------
 |  - bar
||  - double bar
||o - repeat start
o|| - repeat end
*|  - double bar (ending)
 :  - bar (freetime)
 $  - Segno
 &  - Coda
Tempo markers -  = BPM(8/16=s8/s16), where s8 = swing 8ths, s16 = swing 16ths
            
Submit corrections

comments powered by Disqus
↑ Back to top | The Crown Bass for World Below. Lyrics for acoustic guitar and electric guitar. 1 Tablatures and chords are parodies/interpretations of the original songs. You may use it for private study, scholarship, research or language learning purposes only